Oops, an error
Loading. Please wait.

Dime De Un Amor Que No Ha Sufrido Bass Tab

version 2
version 2

Whole song

19 views 1 this week
no commentswrite comment
1 2 3 4 5
3 more votes to show rating
add to favorites
launch autoscroll
font size
0
reset
guitar tuner
Autoscroll
slow
fast
+/-
esc
set tempo
stop
Help us to improve Ultimate-Guitar.com Take our survey!
×
Este tab es casi correcto, no como el otro tab 
q es para niños de 8 años q apenas saben pisar
los trastes del bajo....

Esta es la linea del bajo
*Les recomiendo q usen una pua (uña)*

Intro
G-------------------------
D---1---1---1----1---0-1--
A-3---3---3---3----3------
E-------------------------

G-------------------------
D---1---1---1----1---3-1--
A-3---3---3---3----3------
E-------------------------
                    los dos x2

 Entra la batería...
G-------------------------
D---1---1---1----1---3-5--
A-3---3---3---3----3------
E-------------------------

G--------------------------
D---1---1---1----1---------
A-3---3---3---3----3--0-1h2
E--------------------------
                    los dos x2

 Verso
G-------------------------
D---1---1---1----1---0-1--
A-3---3---3---3----3------
E-------------------------

G-------------------------
D---1---1---1----1---3-5--
A-3---3---3---3----3------
E-------------------------

G-------------------------
D---1---1---1----1---0-1--
A-3---3---3---3----3------
E-------------------------

 Pre-Coro
G-------------------------
D-------------------------
A-555555-666666-888888----
E-------------------------

G-------------------------
D---1---1---1----1---3-5--
A-3---3---3---3----3------
E-------------------------

*Se repite el verso y el pre-coro*

 Coro
G---------------
D---------------
A-555555-444444-
E---------------

G-------------------------
D---1---1---1----1---3-5--
A-3---3---3---3----3------
E-------------------------

G---------------
D---------------
A-555555-444444-
E---------------

G--------------------------
D---1---1---1----1---------
A-3---3---3---3----3--0-1h2
E--------------------------

 Solo de guitarra

G-------------------------
D--------------------3-5--
A--5555555555555555-------
E-------------------------
                          x 2
 Solo de bass
G--------------------
D---1---1---1----0-1-
A-3---3---3---3------
E--------------------

G--------------------
D---1---1---1----3-1-
A-3---3---3---3------
E--------------------
              los dos x 2

 se repite desde el principio como cuando entra la bateria
luego un verso, pre coro, el coro tiene pequeñas variaciones
q aqui pongo

G---------------
D---------------
A-555555-444444-
E---------------

G-------------------------
D---1---1---1----1---3-5--
A-3---3---3---3----3------
E-------------------------
                   los dos x 3

 Final
G----------------------------------
D-----7-------6--------------------
A--5-5--5--4-4--4-3-------15/5-5/0-
E----------------------------------
Suggest correction
Give kudos to tab author, rate the tab!
1 2 3 4 5
comments
print report bad tab
guest
You may want to rate the tab now too:
select rating
Wanna post a correction for this tab? Suggest correction