Oops, an error
Loading. Please wait.

Dime De Un Amor Que No Ha Sufrido Tab

version 3
version 3

Whole song

41 views 1 this week
no commentswrite comment
1 2 3 4 5
3 more votes to show rating
add to favorites
launch autoscroll
font size
0
reset
how to read this tab
guitar tuner
×
Best way to learn
"Dime De Un Amor Que No Ha Sufrido"
Autoscroll
slow
fast
+/-
esc
set tempo
stop
ESTE ES EL SOLO-NO ES MUY DIFICIL!
   
     8x                        4x           4x
e|-------|------------------|-8/11-|-13/15-18-18-18-18-|+
b|-------|-11-11-11-11-11-8-|------|-------------------|+
g|-10/12-|------------------|------|-------------------|+
D|-------|------------------|------|-------------------|+
A|-------|------------------|------|-------------------|+
E|-------|------------------|------|-------------------|+

e|--------------------------------|
b|-8b-7b-----6--------------8b-7b-|
g|-8b-7b-5-5----5-5-5--3-5--8b-7b-|
D|--------------------------------|
A|--------------------------------|
E|--------------------------------|
Suggest correction
Give kudos to tab author, rate the tab!
1 2 3 4 5
comments
print report bad tab
guest
You may want to rate the tab now too:
select rating
Wanna post a correction for this tab? Suggest correction