Oops, an error
Loading. Please wait.

Dime De Un Amor Que No Ha Sufrido Tab

version 4
version 4

Whole song

63 views 3 this week
no commentswrite comment
1 2 3 4 5
3 more votes to show rating
add to favorites
×
Save as Personal and add changes to this tab that will be seen only by you. Learn more ›
×
You can save this tab as Personal to edit and correct it or add notes. All changes will be seen only by you. Learn more »
save as personal
new!
launch autoscroll
font size
0
reset
how to read this tab
guitar tuner
Autoscroll
slow
fast
+/-
esc
set tempo
stop
Intro (8 veces)
e-------------------------------|
b-------------------------------|
g-------------------------------|
D--------------------------3----|
A--3--6-3-6-3-6-3---3-6--3---6--|
E-------------------------------|

Hay una forma que no es humana... 
e-------------------------------|
b-------------------------------|
g-------------------------------|
D--------------------------3----|
A--3--6-3-6-3-6-3---3-6--3---6--|
E-------------------------------|

Vuelve a construir...   luego te vuleve    a  romper       
e---------------------------------------------------------|
b---------------------------------------------------------|
g--2------------------------3-------------------6---------|
D--2------------------------3-------------------6---------|
A--0------------------------1-------------------3---------|
E---------------------------------------------------------|

Dime de  un   amor que no ha sufrido (2 veces)
e----------------------------------------------------------|
b--------7----------5--------------------------------------|
g---7-7--7------6---6----------5--5------------------------|
D---7-7---------6-6------------5--5------------------------|
A--5------------4--------------3------3--6-3-6-3-3-3----3--|
E----------------------------------------------------6-6---|

solo
e--------------------------------------12~---------14~------|
b--------------------------11~------11-----11---11-----11---|
g--12-10-12-10-12-10-12-10------12--------------------------|
D-----------------------------------------------------------|
A-----------------------------------------------------------|
E-----------------------------------------------------------|

e--12-14-12-14-12-14--17~-----------------------------------|
b-----------------------------------------------------------|
g---------------------------------------------9~------------|
D---------------------------13/-12---10-13-10----13-10------|
A-----------------------------------------------------------|
E-----------------------------------------------------------|

e-----------------------------|
b-----------------------------|
g-----------------------------|
D--------------10---13/-12~---|
A--13-13-10-13----------------|
E-----------------------------|

bajo                 guitarra   bajo            guitarra
g--------------------|-3----|-------------------|--3--|
D--------------------|-3----|---------------3---|--3--|
A--3-3-3-3-3-3---5-6-|-1----|--3-3-3-3-3--3---6-|--1--|
E--------------------|------|-------------------|-----|

hay una forma que no es humana
que te destruye y te vuelve a construir 
para que luego te vuelva a romper

amorfa vuelve tu creencia
desequilibra la moral y al redentor
lo vuelve loco lo crucifica en un altar

dime de un amor que no ha sufrido

hay una forma que no es humana
y sin embargo es tan hermosa y es tan cruel 
no la invoques es mas astuta que tu ser

simbologia
~ debes subir medio tono
/ slide
Suggest correction
Give kudos to tab author, rate the tab!
1 2 3 4 5
comments
print report bad tab
guest
Wanna post a correction for this tab? Suggest correction