Oops, an error
Loading. Please wait.

El Aislamiento Bass

version 1
version 1

Whole song

7 views 1 this week
no commentswrite comment
1 2 3 4 5
3 more votes to show rating
add to favorites
launch autoscroll
font size
0
reset
guitar tuner
×
Best way to learn
"El Aislamiento"
Autoscroll
slow
fast
+/-
esc
set tempo
stop
Esta rola es muy facil, lleva muchos hammer on,
te recomiendo no hacerlos muy bruscamente para que le
de el toque de la rola original y recuerda esucharla
un par de veces para que agarres bien los tiempos...

 Intro... ( Se ha perdido un anciano..)
  Am
G|---|---------|------------|------------|-------------|
D|---|----5h7--|      Este riif sigue hasta...   ------|
A|---|-5h7-----|  se fue perdiendo poco a poco.. ----|
E|-5-|5------5-|------------|------------|-------------|

  Se fue buscando...
  C              Am  
G|-----------5--|-----------||
D|----55------5-|------5h7--||
A|3-3----3-3---7|---5h7-----||
E|--------------|5-5-------5||

  En su muerte...
  Am
G|---|---------|------------|------------|-------------|
D|---|----5h7--|      Este riif sigue hasta...   ------|
A|---|-5h7-----|  en sus manos el ramo de dioses..---|
E|-5-|5------5-|------------|------------|-------------|

  Esa sonrisa que mata...
  C              Am  
G|-------------3s5--|-----------||
D|----3s5-5-------5-|------5h7--||
A|3-3-------3-3----7|---5h7-----||
E|------------------|5-5-------5||

  Su tiempo esta en el...
  B            C            B            C         D 
G|------------|------------|------------|--------|---|
D|------------|------------|------------|--------|---|
A|22-22-22-22-|33-33-33-33-|22-22-22-22-|33333333|5s0|
E|------------|------------|------------|--------|---|

- Repite la misma vuelta en la siguiente estrofa y coro...
- En el solo 2 de guitarra el bajo lleva un adornito asi...

  Am
G|------------|------------||
D|-------5h7--|---------7--|| Dudas preguntas o comentarios 
A|----5h7-----|-----7-5----|| escribe a:
E|5--5-------5|5-5-8------5|| laburka@
Suggest correction
Give kudos to tab author, rate the tab!
1 2 3 4 5
comments
print report bad tab
guest
You may want to rate the tab now too:
select rating
Wanna post a correction for this tab? Suggest correction