Oops, an error
Loading. Please wait.

El Aislamiento Bass Tab

version 2
version 2

Whole song

7 views 1 this week
no commentswrite comment
1 2 3 4 5
3 more votes to show rating
add to favorites
launch autoscroll
font size
0
reset
guitar tuner
×
Best way to learn
"El Aislamiento"
Autoscroll
slow
fast
+/-
esc
set tempo
stop
Intro:

G:-----------------|
D:------------5-7--|
A:-------5h-7------|  16x
E:--5-5------------|

G:------------------------|
D:-------5-------5--------|
A:--3--3----3--3----3--2--|
E:------------------------|

G:-----------------|
D:------------5-7--|
A:-------5h-7------|  10x
E:--5-5------------|

G:------------------------|
D:----/5-5-------5--------|
A:--3-------3--3----3--2--|
E:------------------------|

G:-----------------|
D:------------5-7--|
A:-------5h-7------|  2x
E:--5-5------------|

A:--2222222222222222--3333333333333333--|
E:--------------------------------------|

A:--2222222222222222--3333333--/5--|
E:---------------------------------|

G:-----------------|
D:------------5-7--|
A:-------5h-7------|  16x
E:--5-5------------|

G:------------------------|
D:----/5-5-------5--------|
A:--3-------3--3----3--2--|
E:------------------------|

G:-----------------|
D:------------5-7--|
A:-------5h-7------|  2x
E:--5-5------------|

A:--2222222222222222--3333333333333333--|
E:--------------------------------------|

A:--2222222222222222--3333333--/5--|
E:---------------------------------|


A:--2222222222222222--3333333333333333--|
E:--------------------------------------|

A:--2222222222222222--3333333--5555555-|
E:-------------------------------------|

Tocas El Intro Hasta Que Se Hacabe La Cancion...

G:-----------------|
D:------------5-7--|
A:-------5h-7------|  
E:--5-5------------|

Esto Es Todo Lo Que El Bajo Hace...

Espero Que Les Guste Esta Cancion, Y Si Tienen 
Comentarios Favor De Mandarme Un E-Mail!!!
Suggest correction
Give kudos to tab author, rate the tab!
1 2 3 4 5
comments
print report bad tab
guest
You may want to rate the tab now too:
select rating
Wanna post a correction for this tab? Suggest correction