Oops, an error
Loading. Please wait.

El Momento Bass Tab

4 views 1 this week
no commentswrite comment
1 2 3 4 5
3 more votes to show rating
add to favorites
launch autoscroll
font size
0
reset
guitar tuner
×
Best way to learn
"El Momento"
Autoscroll
slow
fast
+/-
esc
set tempo
stop
Esto Es Lo Unico Que Tocas En Toda La Cancion.


Fase 1.

...creo que el secreto...

G:---------|---------|---------|---------|---------|
D:---------|---------|---------|---------|---------|
A:---------|---------|---------|----3-2--|---------|
E:--0------|--1------|--3---3--|--5------|--0------| 4X

Tocas Esto Cuando La Guitarra Hace El Solo.

Fase 2.

G:--------------------------------------------------|
D:--------------------------------------------------|
A:--0-00--0-00--0-00--0-00--2-22--2-22--2-22--2-22--|
E:--------------------------------------------------| 2X

Luego Repites Fase 1.

G:---------|---------|---------|---------|---------|
D:---------|---------|---------|---------|---------|
A:---------|---------|---------|----3-2--|---------|
E:--0------|--1------|--3---3--|--5------|--0------| 4X

Repites Esto Hasta Que Se Acabe La Cancion.

Fase 3.

G:-----------------------------|
D:-----------------------------|
A:--0-00--1-11--3-33--3-33--1--|
E:-----------------------------|

Bueno Espero Que Les Guste!!! Favor De Mandarme Un e-mail
Si Tienen Dudas o Comentarios...

...Solo Quiero Decir Que Hay Una Persona Muy Especial En Mi
Vida Que A Cambiado Mi Forma De Ser, Mi Manera De Pensar, De
Mirar Las Cosas Y De Vivir. Solo Quiero Que Sepas Marlene Que 
Te Quiero Con Todo Mi Corazon Pase Lo Que Pase Estare Hai Junto
Con Tigo!!!
Suggest correction
Give kudos to tab author, rate the tab!
1 2 3 4 5
comments
print report bad tab
guest
You may want to rate the tab now too:
select rating
Wanna post a correction for this tab? Suggest correction