Oops, an error
Loading. Please wait.

El Momento Tab

11 views 1 this week
no commentswrite comment
1 2 3 4 5
3 more votes to show rating
add to favorites
launch autoscroll
font size
0
reset
how to read this tab
guitar tuner
Autoscroll
slow
fast
+/-
esc
set tempo
stop
Help us to improve Ultimate-Guitar.com Take our survey!
×
EL MOMENTO
esta mecosto un poco sacarla, suena igual al disco
o no? comentarios a mi correo

CORO    (1:44)
Arpegio:  Am       A#        C        
       e|-----------------------------------|
       B|----4--------4---------4-----6-5---|
       G|---3-5------3-5-------3-5--------5-|
       D|--2---6----2---6-----2---6---------|
       A|-1--------1---------1--------------|
       E|-----------------------------------|

Solo:1 (2:17)
B|-10-12-12b-10/6--6-5---------18-15---18-18-18--|
G|---------------------5-5-7---------------------|
D|-----------------------------------------------|

(2:25)
E|---------------------------------------|
B|-8-7----10-8-7-8----8-7----12-10-7-8---|
G|-----7-----------7------7------------7-|

(2:33)
B|-10-12-12b-10/6--6-5---------18-15----|
G|---------------------5-5-7------------|
D|--------------------------------------|

(2:41)
E|-------------------------------|
B|-8-7----10-8-7-8----8-7----12--|
G|-----7-----------7------7------|

CORO    (3:29)
Arpegio:  Am       A#        C        
       e|-----------------------------------|
       B|----4--------4---------4-----6-5---|
       G|---3-5------3-5-------3-5--------5-|
       D|--2---6----2---6-----2---6---------|
       A|-1--------1---------1--------------|
       E|-----------------------------------|

Solo:2 (4:02)
E|-------------------------------|
B|-6-5---8-6-5-6---10-8-6-5-6----|
G|-----5----------------------5--|

 (4:10)
B|-6-5----8-6-5-6----10-8-6-5-6------|
G|-----5----------5-------------5----|
(4:18)
e|-----------------------------------|
B|-13-10-6-8-10-8-6-5---8---10-8-----|
G|--------------------5---5------5---|
(4:26)
e|-----------------------------------|
B|-13-10-6-8-10-8-6-5---6---8---8----|
G|-------------------5---5---5---5---|

Se repite todo el solo 2
Suggest correction
Give kudos to tab author, rate the tab!
1 2 3 4 5
comments
print report bad tab
guest
You may want to rate the tab now too:
select rating
Wanna post a correction for this tab? Suggest correction