Oops, an error
Loading. Please wait.

El Momento Chords

version 2
version 2

Whole song

10 views 1 this week
no commentswrite comment
1 2 3 4 5
3 more votes to show rating
add to favorites
launch autoscroll
font size
0
reset
transpose
0
reset
simplify chords
display chords
guitar tuner
Autoscroll
slow
fast
+/-
esc
set tempo
stop
Help us to improve Ultimate-Guitar.com Take our survey!
×
EL MOMENTO

    Am      Cmaj7
Yo no se que paso
Fa#/La        F/LA
pero mi mente un día se fue
     G
corriendo
   Am               Cmaj7
con ella se fue mi visión
Fa#/La           F/LA
y mis sentidos asustados
     G
huyeron
      Am 
pasó un silencio que me rozó
 D                        G
era mi mente que inhalaba vida
   Am         Cmaj7
Luego sentí que mi soledad
  Fa#/La        F/LA        G
por un momento no estaba llorando
Am                     
no te asustes no me iré
 D                         G
solo quería estar sola un momento.

             Dm    A#         C
Creo que el secreto esta en el tiempo
                Dm           A#
ese tiempo que cambia otro momento
            C
y lo hace nuevo. (2)

1° solo: (Lam-Sim)

  Am
Yo no se que paso
 Fa#/La      F/LA
pero mi espíritu  me dejo
       G
en la nada 
  Am
ahí no hay miedos no hay fríos
 D                           G
solo mi mente que irradiaba fuerza.

              Dm      A#       C
Creo que el secreto esta en el tiempo
                Dm           A#
ese tiempo que cambia otro momento
            C
y lo hace nuevo. (2)

2° solo: (Lam - La# - Do ) 


1° solo.
                          Am
E  |------------------------------------------------
A  |------------------------------------------------
D  |------------------------------------------------
G  |--------------------------5-5-7-----------------
B  |----------------6-5-6-5-------------------------
E  |---5-7-8-7-5---------------------13-10-13-------
                                
                          Bm
E  |-------------------------------------------------
A  |-------------------------------------------------
D  |-------------------------------------------------
G  |---------7--------------7-------7--------------7-
B  |---8-7-----10-8-7-8-------8-7--------10-7-8------
E  |----------------------------------7--------------

                          Am
E  |-------------------------------------------------
A  |-------------------------------------------------
D  |-------------------------------------------------
G  |--------------------------5-5-7------------------
B  |----------------6-5-6-5--------------------------
E  |---5-7-8-7-5---------------------13-10-----------

                          Bm
E  |-------------------------------------------------
A  |-------------------------------------------------
D  |-------------------------------------------------
G  |---------7----------7-------7--------------------
B  |---8-7-----10-8-7-8---8-7------------------------
E  |------------------------------7------------------


2° Solo

E  |-------------------------------------------------
A  |-------------------------------------------------
D  |-------------------------------------------------
G  |---------5--------5--------------5----------5----
B  |---6--5-------8-------5---6----8---5---6---------
E  |-----------------------------5-------------------
       Am          A#          C


E  |-------------------------------------------------
A  |-------------------------------------------------
D  |------------------------------------------------- 
G  |----------5-------5---------5----------5-------5-
B  |---6---5------8------5---6---------8------5--6---
E  |-------------------------------5-----------------
       Am          A#             C


E  |-------------------------------------------------
A  |-------------------------------------------------
D  |-------------------------------------------------
G  |------------------------------------5--------5---
B  |--------6--8------8---6---5---6---8-------8------
E  |--8--5--------5------------------------5---------
        Am      A#                C


E  |-------------------------------------------------
A  |-------------------------------------------------
D  |-------------------------------------------------
G  |----------------------------------5---5---5------
B  |----------6---8-----8--6--5--6--8---8---8--------
E  |---8---5---------5-------------------------------
        Am          A#           C


    Cmaj7     Fa#/La      F/LA      A#       C
E|----0-----|-----0----|-----0----|----1----|----3----|
A|----0-----|-----0----|-----0----|----1----|----3----|
D|----2-----|-----4----|-----3----|----3----|----2----|
G|----0-----|-----2----|-----2----|----3----|----0----|
B|----1-----|-----0----|-----0----|----3----|----1----|
e|----0-----|-----0----|-----0----|----1----|----0----|
                           
     D        G
E|----0----|----3----|
A|----0----|----2----|
D|----0----|----0----|
G|----2----|----0----|
B|----3----|----3----|
e|----2----|----3----|
Suggest correction
Give kudos to tab author, rate the tab!
1 2 3 4 5
comments
print report bad tab
guest
You may want to rate the tab now too:
select rating
Wanna post a correction for this tab? Suggest correction