Oops, an error
Loading. Please wait.

El Secreto Bass Tab

version 1
version 1

Whole song

Interactive

14 views 1 this week
no commentswrite comment
1 2 3 4 5
3 more votes to show rating
add to favorites
launch autoscroll
font size
0
reset
guitar tuner
Autoscroll
slow
fast
+/-
esc
set tempo
stop
Help us to improve Ultimate-Guitar.com Take our survey!
×
intro

   C         D     Em 
G-----------------------------------   X2
D------------------2-2-2-2-2-2------
A--3-3-3-3-3-5-5-5------------------
E-----------------------------------

VERSOS

G-----------------------------------
D------------------2-2-2-2-2-2------
A--3-3-3-3-3-5-5-5------------------
E-----------------------------------

CORO

G-----------------------------------------------
D--2-2-2-2------------------------2-2-2-2-2-2-2-
A----------3-3-3-5-5-5-5-5-5-5-5----------------
E-----------------------------------------------

G-----------------------------------------------
D--2-2-2-2------------------------2-2-2-2-2-2-2-
A----------3-3-3-5-5-5-5-5-5-5-5----------------
E-----------------------------------------------

INTERMEDIO

G-------------------------
D-------------------------
A------3-3-7-7-7----------
E-0-0------------0--------

HAY CAMINOS.....

G-------------------------
D-------------------------
A-------------------------
E-0-0-0-0-0-0-5-5-5-------

QUE TE CONDUCEN...

G---------------------------------------------------
D---------------------------------------------------
A------------------------------------------3---5--7-
E--3-3-3-3-3-3-3-3-3-3-3-3-3-3-3-5-5-5--5-----------

OTROS TE QUITAN LA VIDA....

CORO

SOLO:

G--------------------
D------------2222222
A-33333-55555----------
E----------------------

CORO

SEGUNDO SOLO:

G----------------------    X2
D----------------------
A-3-5--7-3------7-7----
E-----------3-3--------

FINAL:

G-------
D-------
A-3-5-7----
E-------
Suggest correction
Give kudos to tab author, rate the tab!
1 2 3 4 5
comments
print report bad tab
guest
You may want to rate the tab now too:
select rating
Wanna post a correction for this tab? Suggest correction