Oops, an error
Loading. Please wait.

El Secreto Tab

version 1
version 1

Whole song

Interactive

43 views 1 this week
no commentswrite comment
1 2 3 4 5
3 more votes to show rating
add to favorites
launch autoscroll
font size
0
reset
how to read this tab
guitar tuner
×
Best way to learn
"El Secreto"
Autoscroll
slow
fast
+/-
esc
set tempo
stop
el secreto:                         
                                      x = PALM MUTED
intro:                 
e------------------------------------
B------------------------------------
G-5xx5xx5x2xx2xx2x-------------------
D-5xx5xx5x2xx2xx2x2xx2xx2x2xx2xx2x---
A-3xx3xx3x0xx0xx0x2xx2xx2x2xx2xx2x---
E-----------------0xx0xx0x0xx0xx0x---

riff que va en la intro con distorcion:
e------------------------------------
B------------------------------------
G------------------------------------
D------------------------------------
A------------------------------------
E-0H2-3/5-2/3------------------------

y cuando saul canta 'y cuando pasa' se tocan 
lentamente los sig. acordes una vez cada uno, 
ay que escuchar la rola:

e-0------0------0--------------------
B-1------3------0--------------------
G-2------2------0--------------------
D-2------0------2--------------------
A-0------0------2--------------------
E-0------0------0--------------------

coro:

e------------------------------------
B------------------------------------
G------------------------------------
D-5-etc-7-etc-4-etc------------------
A-3-----5-----2-----5/7-5/2-2--------
E------------------------------------

e------------------------------------
B------------------------------------
G------------------------------------
D-5-etc-7-etc-4-etc------------------
A-3-----5-----2----------------------
E-------------------3--2--0----------

les debo el solo 1 pero hay les va el solo 2:

B-8-7-8/5-5/3-1-3/5-1/3--------------

el solo 2 se toca 2 veces.

tablaturas hasta ahorita mias:

amarrate a una escoba y vuela lejos
el secreto


dudas o comentarios por fa a mi e-mail de aca arriba.
Suggest correction
Give kudos to tab author, rate the tab!
1 2 3 4 5
comments
print report bad tab
guest
You may want to rate the tab now too:
select rating
Wanna post a correction for this tab? Suggest correction