Oops, an error
Loading. Please wait.

El Secreto Bass Tab

version 2
version 2

Whole song

Interactive

22 views 1 this week
no commentswrite comment
1 2 3 4 5
3 more votes to show rating
add to favorites
launch autoscroll
font size
0
reset
guitar tuner
Autoscroll
slow
fast
+/-
esc
set tempo
stop
Help us to improve Ultimate-Guitar.com Take our survey!
×
esta rola es muy facil solo te recomiendo escucharla 
un par de veces para que agarres bien los tiempos, por ahi 
el la tablatura hay una p debajo de esta,:

p: popping - jalar la cuerda con el dedo indice de la mano
derecha hacia afuera es una de las dos tecnicas del slap

  Intro X 2
  C5           C5b          Em  
G|------------|------------|------------||
D|------------|------------|222222222222||
A|333333333333|333333333333|------------||
E|------------|------------|------------||

  Cuantas veces...
  C5           C5b          Em           C5 
G|------------|------------|------------|-------------|
D|------------|------------|222222222222|-------------|
A|333333333333|333333333333|------------|3333333333333|
E|------------|------------|------------|-------------|

  C5b          Em
G|------------|------------||
D|--------5h4s|222222222222||
A|3333333-----|------------||
E|------------|------------||
          p

  Y cuando pasa...
  C            D            Em           C   
G|------------|------------|------------|-------------|
D|------------|------------|222222222222|-------------|
A|333333333333|555555555555|------------|3333333333333|
E|------------|------------|------------|-------------|

  D            Em   
G|------------|--------------------||
D|------------|--------------------||
A|555555555555|7777-5h77-5h77-5h77-||
E|------------|--------------------||

  Hazlo tu secreto...
  C            D            Em           D B
G|------------|------------|-----------------|
D|------------|------------|-----------------|
A|333333333333|555555555555|77777777-2s7-5-2-|
E|------------|------------|-----------------|

  Ese silencio...
  C            D            B  
G|------------|------------|-------------||
D|------------|------------|-------------||
A|333333333333|555555555555|222222222----||
E|------------|------------|---------320-||

- Segunda estrofa repite igual...

  Hay caminos que van...
   E    Cmaj7   Em    Em6   A     G#     A
G|------------|------------|------------|-------------|
D|------------|------------|------------|-------------|
A|-7----------|-7------7---|------------|-------------|
E|-------8----|------------|5------4----|5------------|

  Solo deguitarra...
  C            D            Em           D
G|------------|------------|------------|-------------|
D|------------|------------|------------|-------------|
A|333333333333|555555555555|777777777777|5555555555555|
E|------------|------------|------------|-------------|

  C            D            Em
G|------------|------------|-----------------|
D|------------|------------|-----------------|
A|333333333333|555555555555|77777777-2s7-5-2-|
E|------------|------------|-----------------|

- Hazlo tu secreto...x2 ( igual al primer coro )

- Termina con el mismo riff del coro...

- Notas del final...

G|--------------------------------------||
D|------------------------2-------2-----||
A|3-----5-3-5---------------------------||
E|--3-0-------0---------0-------0-------||

Dudas preguntas o comentarios escribe a:
laburka@
Suggest correction
Give kudos to tab author, rate the tab!
1 2 3 4 5
comments
print report bad tab
guest
You may want to rate the tab now too:
select rating
Wanna post a correction for this tab? Suggest correction