Oops, an error
Loading. Please wait.

El Secreto Tab

version 2
version 2

Whole song

Interactive

29 views 1 this week
no commentswrite comment
1 2 3 4 5
3 more votes to show rating
add to favorites
×
Save as Personal and add changes to this tab that will be seen only by you. Learn more ›
×
You can save this tab as Personal to edit and correct it or add notes. All changes will be seen only by you. Learn more »
save as personal
new!
launch autoscroll
font size
0
reset
how to read this tab
guitar tuner
Autoscroll
slow
fast
+/-
esc
set tempo
stop
esta es la correccion de mi ultimo tab, a exepcion del coro 
y el segundo solo que estos si estan bien ay va:

e--------------------------------
B--------------------------------
G--------------------------------
D-5xx5xx54xx4xx4-----------------
A-3xx3xx32xx2xx22xx2xx2x2xx2xx2--
E---------------0xx0xx0x0xx0xx0--


y cuando saul canta 'y cuando pasa'
e-0----2----0---------------
B-1----3----0---------------
G-0----2----0---------------
D-2----0----2---------------
A-3---------2---------------
E-3---------0---------------


y ahora si ay les va el primer solo:

e--------------------------------
B--------------------------------
G--------------------------------
D-4(5)-4(5)-4(5)-4(5)----4(5)-2--
A--------------------------------
E--------------------------------


e-----------------------------------
B---------------------4-5-7-7-5-7-7-
G-----------4-6-6-4-6---------------
D-----------------------------------
A-2-4-5-4-2-------------------------
E-----------------------------------

e------------------------------------
B------------------------------------
G------------------------------------
D------------------------------------
A------------------------------------
E--3--tiras de esta nota con palanca-

e----------------------------9-9----9-9-
B---------------------3--8/10-----10----
G-2-3-4-3-2-2---2-4-5-------------------
D-------------5-------------------------
A---------------------------------------
E---------------------------------------

e-------11-11----11-11-------13-13----13-13-
B-10/12-------12-------12/14-------14-------
G-------------------------------------------
D-------------------------------------------
A-------------------------------------------
E-------------------------------------------


e------------------¦
B------------------¦
G------------------¦
D------------------¦
A------------------¦
E--3-2-0-----------¦

bueno ya estuvo, dudas quejas o comentarios indudablemente 
pos a mi correo, un saludo pa octavio y felicidades por 
esta gran pagina.
Suggest correction
Give kudos to tab author, rate the tab!
1 2 3 4 5
comments
print report bad tab
guest
Wanna post a correction for this tab? Suggest correction