Oops, an error
Loading. Please wait.

El Secreto Tab

version 3
version 3

Whole song

Interactive

25 views 1 this week
no commentswrite comment
1 2 3 4 5
3 more votes to show rating
add to favorites
launch autoscroll
font size
0
reset
how to read this tab
guitar tuner
×
Best way to learn
"El Secreto"
Autoscroll
slow
fast
+/-
esc
set tempo
stop
Intro
e-------------|           e--------------|         e--------------|
B-------------|           B--------------|         B--------------|
G--5----------|3 veces    G--5-----------|3 veces  G--------------|3 veces
D--5----------|           D--4-----------|         D--2-----------| 
A--3----------|           A--3-----------|         A--2-----------|
E-------------|           E--------------|         E--------------| 
Despues de eso en el tercer riff el vampiro toca esto
e-------------------|
B-------------------|
G-------------------|
D-------------------|
A-------------------|
E--0--3--5--7--5--3-|

y cuando saul canta 'y cuando pasa' el vampiro hace estos tres tonos muy raros
e--3------|  e--5-----|  e--0-----|
B--5------|  B--3-----|  B--5-----|
G--5------|  G--0-----|  G--4-----|
D--5------|  D--4-----|  D--5-----|
A---------|  A--------|  A--------|
E---------|  E--------|  E--------|
 
y hace lo mismo cuando dice 'cuando se aleja'
e--3------|  e--5-----|  e--0-----|
B--5------|  B--3-----|  B--5-----|
G--5------|  G--0-----|  G--4-----|
D--5------|  D--4-----|  D--5-----|
A---------|  A--------|  A--------|
E---------|  E--------|  E--------|
 
Y cuando dice 'hazlo tu secreto' 
saul sigue con los mismos acordes toda la cancion 
y el vampiro hace esto
e---------------------------| e---------------------------| e---------------------------|
B---------------------------| B---------------------------| B---------------------------|
G---------------------------| G---------------------------| G---------------------------|
D---------------------------| D---------------------------| D---------------------------|
A---------------------------| A---------------------------| A---------------------------|
E--12-12-15-12-12-15-12-15--| E--14-14-17-14-14-17-14-17--| E--12-12-15-12-12-15-12-17--|

y esto toca saul al termino de esos tres riff
e---------------|
B---------------|
G---------------|
D---------------|
A---------------|
E--12--10--7----| 

se vuelve a repetir 
e---------------------------| e---------------------------| e---------------------------|
B---------------------------| B---------------------------| B---------------------------|
G---------------------------| G---------------------------| G---------------------------|
D---------------------------| D---------------------------| D---------------------------|
A---------------------------| A---------------------------| A---------------------------|
E--12-12-15-12-12-15-12-15--| E--14-14-17-14-14-17-14-17--| E--12-12-15-12-12-15-12-17--|
 pero ahora saul toca esto 
e--------------|
B--------------|
G--------------|
D--------------|
A--------------|
E--3--2--0-----|

se vuelven a repetir la estrofa y el coro pero este dos veces
cambia hasta donde dice....

Em               Emdiss7    Em7                 C9
Hay, caminos que van, de la mano de algún, ser celestial
Am                     Am7        D7(b5)       Em      
que te conducen hasta donde la pureza descansa en paz
                                                       
C#m               C#mdims7            C#m7       C#m A 

otros te quitan la vida, tu muerte es lenta y ni cuenta te das

C(add9) D11/G   Em  C(add9) D11/G B  G G/F#  


se vuelve a repetir el coro y luego el solo 2  que hace saul es asi:
e--8--8--7--7--7--7--8--8--10--8--7--7--5--3--1--1--3--5--3--1--3--1--0-|
B-----------------------------------------------------------------------|
G-----------------------------------------------------------------------|
D-----------------------------------------------------------------------|
A-----------------------------------------------------------------------|
E-----------------------------------------------------------------------|

e--8--8--7--7--7--7--8--8--10--8--7--7--5--3--1--1--3--5--3--1--3--1--0~~|
B------------------------------------------------------------------------|
G------------------------------------------------------------------------|
D------------------------------------------------------------------------|
A------------------------------------------------------------------------|
E------------------------------------------------------------------------|

al acabar el solo el vampiro colcluye la cancion con esto
e-------------------------------------------------------|
B-------------------------------------------------------|
G-------------------------------------------------------|varias veces hasta quese termine
D--9--9--12--9--9--12--9--12----------12------------12--|la cancion
A-----------------------------12--12-------12--12-------|
E-------------------------------------------------------|

 
UNA SUGERENCIA O AVISO TENGO 14 AÑOS SI HAY ALGO MAL 
HAGANMELO SABER SI TODO ESTO LO SAQUE YO ESCRIBANME SI
TIENEN DUDAS SUGERENCIAS O COMENTARIOS.
Suggest correction
Give kudos to tab author, rate the tab!
1 2 3 4 5
comments
print report bad tab
guest
You may want to rate the tab now too:
select rating
Wanna post a correction for this tab? Suggest correction