Oops, an error
Loading. Please wait.

El Ultimo Planeta Tab

version 2
version 2
33 views 1 this week
no commentswrite comment
1 2 3 4 5
3 more votes to show rating
add to favorites
launch autoscroll
font size
0
reset
how to read this tab
guitar tuner
×
Best way to learn
"El Ultimo Planeta"
Autoscroll
slow
fast
+/-
esc
set tempo
stop
 Hola nuevamente raza, soy su cuate Moises una vez mas colaborando pa que se agan perros tocando
y presuman que ustedes la sacaron (JUAN)
Esta es una de mis rolas favoritas y esta es mi interpretacion de la rola.

Intro

e-------------------------
B-------------------------
G-------------------------    (8*)
D-------------------------
A---8-7-8-7-8-7-8-7-8-7---
E-0-----------------------

despues entra otra guitarra haciendo estos punteos mientras otra sigue haciendo el intro


e-------------------------
B-------------------------
G-------------------------
D----4-5-4------4-5-4-----
A-2--2-3-2---2--2-3-2-----
E-0----------0------------


e------------------------------------------
B------------------------------------------
G------------------------------------------
D------------------------------------------
A-13~-13~-13~-12~-12~--13~-13~-13~-12~-12~-
E------------------------------------------


e-------------------------
B-------------------------
G-------------------------
D----4-5-4------4-5-4-----
A-2--2-3-2---2--2-3-2-----
E-0----------0------------


e------------------------------------------
B------------------------------------------
G------------------------------------------
D------------------------------------------
A-13~-13~-13~-12~-12~--13~-13~-13~-12~-12~-
E------------------------------------------

E           G      D              Bm
Si tuviera que, derramarme para salvarte
E           G     D             Bm
si tuviera que, dejar de ser para que fueras

     SOLO


e-4h5-4-------7---5-----5---5-----5-4h5-4-----
B-------5---5---5---7-----5---5-----------5---
G---------4-----------4---------4-----------4-
D---------------------------------------------
A---------------------------------------------
E---------------------------------------------


e-------12-------------12------------------12-
B----10----10-------10----10---------------12-
G-12----------12-11----------11--7/9--9~~--12-
D-------------------------------------9~~-----
A---------------------------------------------
E---------------------------------------------

E          G               D          Bm
Si tuviera que esconder el mundo para que no sufras
E          G               D         Bm
si tuviera que retar a la muerte para que existas
E           G     D        Bm
Lo haria de aqui hasta el ultimo planeta!!
E           G     D        Bm
Lo haria de aqui hasta el ultimo planeta!!


Punteo final.

e--------------------------------------------------------------------------------------
B--------------------------------------------------------------------------------------
G---9-9-9-10-9-9-10-9-9-10-9----9-9-9-10-9-9-10-9-9-10-9------9-9-9-10-9-9-10-9-9-10-9-
D--------------------------------------------------------------------------------------
A---------------------------------------------------------2----------------------------
E-0---------------------------0---------------------------0--0-------------------------


e--------------------------------------------------------------------------------------
B--------------------------------------------------------------------------------------
G---9-9-9-10-9-9-10-9-9-10-9----9-9-9-10-9-9-10-9-9-10-9------9-9-9-10-9-9-10-9-9-10-9-
D--------------------------------------------------------------------------------------
A---------------------------------------------------------2----------------------------
E-0---------------------------0---------------------------0--0-------------------------


e--------------------------------------------
B--------------------------------------------
G--------------------------------------------
D----4-5-4------4-5-4------4-5-4------4-5-4--
A-2--2-3-2---2--2-3-2---2--2-3-2---2--2-3-2--
E-0----------0----------0----------0---------

e-7--7--7--5--5--5--7--7--7--5--5--5--7--7--7--5--5--5--5--5------
B--5--5--5--5--5--5--5--5--5--5--5--5--5--5--5--5--5--5-----------
G---------------------------------------------------------4--4----
D-----------------------------------------------------------------
A---------------------------------------------------------------2-
E---------------------------------------------------------------0-


Como la ven, eso es todo se escucha bien perron si te la saben acompanar.
Y ....               Juan si me la vas a piratear namas dame credito. Saludos a la raza de [Colima]
y a todos mis cuates, al gato, al broken (sammy), al chilango, a Ivan en fin a todos.


AbI...


                                         Moises Guzman
Suggest correction
Give kudos to tab author, rate the tab!
1 2 3 4 5
comments
print report bad tab
guest
You may want to rate the tab now too:
select rating
Wanna post a correction for this tab? Suggest correction