Oops, an error
Loading. Please wait.

El Ultimo Planeta Tab

version 3
version 3
13 views 1 this week
no commentswrite comment
1 2 3 4 5
3 more votes to show rating
add to favorites
launch autoscroll
font size
0
reset
how to read this tab
guitar tuner
×
Best way to learn
"El Ultimo Planeta"
Autoscroll
slow
fast
+/-
esc
set tempo
stop
asi es como empieza el vampiro
e--------------------------------
B--------------------------------
G--------------------------------   ( 4 veces )
D--------------------------------
A--------------------------------
E--0---12--13--12--13--12--13--12

e------------
B------------  
G------------
D-----4--7--4  ( 2 veces )
A--2--2--5--2
E--0---------

mientras saul toca esto
e-------------------------
B-------------------------
G-------------------------  ( 4 veces )
D-------------------------
A------7--8--7--8--7--8--7
E--0----------------------

e-----------
B-----------
G-----------  
D----4--7--4  (2 veces )
A--2--2--5--2
E--0---------

el vampiro toca esto
e-----------------------
B---11~---10~---11~---10~
G-----------------------
D-----------------------
A-----------------------
E-----------------------

y luego saul hace lo mismo
e-------------------------
B-------------------------
G-------------------------  ( 4 veces )
D-------------------------
A------7--8--7--8--7--8--7
E--0----------------------

e-----------
B-----------
G-----------  
D----4--7--4  (2 veces )
A--2--2--5--2
E--0---------

y el vampiro toca esto
e-----------------------
B---13~---12~---13~---12~
G-----------------------
D-----------------------
A-----------------------
E-----------------------

Y esto es todo el intro despues les mando lo que sigue 
( todo esto es con distorcion )
Dudas o comentarios ya saben a donde
Suggest correction
Give kudos to tab author, rate the tab!
1 2 3 4 5
comments
print report bad tab
guest
You may want to rate the tab now too:
select rating
Wanna post a correction for this tab? Suggest correction