Oops, an error
Loading. Please wait.

El Ultimo Planeta Tab

version 4
version 4
7 views 1 this week
no commentswrite comment
1 2 3 4 5
3 more votes to show rating
add to favorites
launch autoscroll
font size
0
reset
how to read this tab
guitar tuner
Autoscroll
slow
fast
+/-
esc
set tempo
stop
Help us to improve Ultimate-Guitar.com Take our survey!
×
introdución

---------------------------------15--15-15----14-14-14---
-----------------------------------15--15-15----14-14-14-
--4---4---4---4---2---2--2---2---------------------------
--4---4---4---4---2---2--2---2---------------------------
----2-------2-------0------0-----------------------------
---------------------------------------------------------


puente
--4-5-------7--4-5--4-5-4---4---5---12----4-5---12--------
------5-------------------5----5--------5----------5-4--5-
--------4---------------------4-------------------------4-
----------------------------------------------------------
----------------------------------------------------------
----------------------------------------------------------

final
----------------------------------------------------------
----------12---------15-14---12-14-15-14------------------
----12--13---15--13---------------------------------------
--14------------------------------------------------------
----------------------------------------------------------
----------------------------------------------------------

----------------------------------------------------------
----------12---------15-14---12---------------------------
----12--13---15--13----------------4----------------------
--14-------------------------------4----------------------
-----------------------------------2----------------------
----------------------------------------------------------

---------------------------------------------------------
---------------------------------------------------------
--4---4---4---4---2---2--2---2---------------------------
--4---4---4---4---2---2--2---2---------------------------
----2-------2-------0------0-----------------------------
---------------------------------------------------------

--------------------------------------------------------------
--------------------------------------------------------------
-12-0-12-0-12-0--10-0-10-0-10-0--8-0-8-0-8-0--7-0-7-0-7-7--5~-
--------------------------------------------------------------
--------------------------------------------------------------
--------------------------------------------------------------
Suggest correction
Give kudos to tab author, rate the tab!
1 2 3 4 5
comments
print report bad tab
guest
You may want to rate the tab now too:
select rating
Wanna post a correction for this tab? Suggest correction