Oops, an error
Loading. Please wait.

El Ultimo Planeta Tab

version 5
version 5
34 views 1 this week
no commentswrite comment
1 2 3 4 5
3 more votes to show rating
add to favorites
launch autoscroll
font size
0
reset
how to read this tab
guitar tuner
×
Best way to learn
"El Ultimo Planeta"
Autoscroll
slow
fast
+/-
esc
set tempo
stop
Holas vi ke esta cancion estaba en la lista de peticiones
y aqui les va todo lo ke kerian ver...

Intro:

e---------------------------
b---------------------------
g---------------------------
d---------------------------    x8
a-10--9--7--9--7--9--7--9--7
e-0-------------------------

E5 B5 C5 B5

todo eso lo tocas 3 veces

E5           G5
si tuviera que
D5
derramarme para salvarte
E5           G5
si tuviera que
D5
dejar de ser para que fueras

el verso de aca arriba lo toca solo el bajo pero tu lo puedes
tocar en quintas como lo puse...

1er solo

E |------------------------------------------------
A |------------------------------------------------
D |------------------------------------------------
G |----------4-----------4---------4-----------5---
B |--------5---5---5---7-----5---5-----------5-----
e |--4h5-4-------7---5-----5---5-----5-4h5-4-------


E |------------------------------------------------
A |------------------------------------------------
D |------------------------------------------------
G |--12---------12-11----------11-7-9~---*12-------
B |-----10---10-------10----10-----------*12-------
e |-------12-------------12--------------*12-------
(*armonicos)
E5 1          G5 2
si tuviera que esconder
D5 3
el mundo para que no sufras
E5 4         G5  5
si tuviera que retar a la
D5  6
muerte para que existas
  1   2  3  4  5  6
e-12--7--5--3--3--2
b-12--8--7--5--3--3
g-12--7--7--4--0--2  estos rageos van arriba de los
d-x----------------  versos de arriba
a-x----------------
e-x----------------


E5   G5          D5
lo haria de aqui hasta el ultimo planeta
E5   G5          D5
lo haria de aqui hasta el ultimo planeta

2do solo

e-----------------------------------------------------
b----------12---------15-14---12-14-15-14------------------
g----12--13---15--13---------------------------------------
d--14------------------------------------------------------
a----------------------------------------------------------
e----------------------------------------------------------

e----------------------------------------------------------
b----------12---------15-14---12---------------------------
g----12--13---15--13----------------9/---------------------
d--14-------------------------------9/----------------------
a-----------------------------------7/----------------------
e---------------------------------------------------------

E5 B5 C5 B5 mientras tocas eso otra guitarra hace esto:

e-7--7--7--5--5--5--7--7--7--5--5--5--7--7--7--5--5--5--5--5------
B--5--5--5--5--5--5--5--5--5--5--5--5--5--5--5--5--5--5-----------
G---------------------------------------------------------4--4----
D-----------------------------------------------------------------
A---------------------------------------------------------------2-
E---------------------------------------------------------------0-


terminas en E5

tonos
  E5 B5 C5 G5 D5
e----------------
b----------------
g----4--5-----7--
d-2--4--5--5--7--
a-2--2--3--5--5--
e-0--------3-----

---------------------------------------------------
bueno eso seria todo la cancion esta muy completa y creo que es la
mejor,, dudas escribanme,, y busken mas transcripciones mias de
jagures...
Suggest correction
Give kudos to tab author, rate the tab!
1 2 3 4 5
comments
print report bad tab
guest
You may want to rate the tab now too:
select rating
Wanna post a correction for this tab? Suggest correction