Oops, an error
Loading. Please wait.

El Ultimo Planeta Tab

version 6
version 6
20 views 1 this week
no commentswrite comment
1 2 3 4 5
3 more votes to show rating
add to favorites
launch autoscroll
font size
0
reset
how to read this tab
guitar tuner
×
Best way to learn
"El Ultimo Planeta"
Autoscroll
slow
fast
+/-
esc
set tempo
stop
/-slide
^-bend

Intro
e|----------------------------------------------------|
b|----------------------------------------------------|
g|----------------------------------------------------|
d|----------------------------------------------------|
a|----7-7--8--7-7-7--8-7--7-7---7-7--8-7-7--8-7--7-7--|
e|--0-------------------------0-----------------------|repite
|----------------|
|--0--0--0--0----|
|--4--4--4--4----|
|--2--2--5--4----|
|----------------|
|----------------|repite
Luego Saul empieza a cantar y despues viene el primer solo
|--4h5h4-------7---5-----5---5-----5-4h5h4-----------|
|--------5---5---5---5-----5---5-----------5---------|
|----------4-----------4---------4-----------4-------|
|----------------------------------------------------|
|----------------------------------------------------|
|----------------------------------------------------|

|--------12---------------12---------12--|
|-----10------10-------10------------12--|
|--12------------12-11--------7-7/9--12--|
|----------------------------------------|
|----------------------------------------|
|----------------------------------------|

Cuando empieza a cantar otra vez se toca esto.

|--7----5-----4-----5---7-----5------4------5--------|
|--9----7-------5-------9-----7--------5-------------|
|--9----7---------4-----9-----7----------4-----------|
|----------------------------------------------------|
|----------------------------------------------------|
|----------------------------------------------------|

Despues que deje de cantar se toca el solo del vampiro

|-------------------10-10h9--7-9--10-----------------|
|--------12-12-------------------------------12-12---|
|-9h10h9--------9--------------------9h10h9----------|
|----------------------------------------------------|
|----------------------------------------------------|
|----------------------------------------------------|

|-----10-10h9--7-9-10----------------10-10h9--7-9-10-|
|----------------------------12-12-------------------|
|--9-------------------9h10h9------9-----------------|
|----------------------------------------------------|
|----------------------------------------------------|
|----------------------------------------------------|

|-----------------10--10h9--7-9h10-9--|
|--------12-12------------------------|
|-9h10h9-------9----------------------|
|-------------------------------------|
|-------------------------------------|
|-------------------------------------|

Y el final es igual que el pricipio solo que al ultimo
le hechas este riff.

|-7-----7----7----5----5----5----7---7---7---5---5---|
|---5-----5----5----5----5----5----5---5---5---5---5-|
|----------------------------------------------------|
|----------------------------------------------------|
|----------------------------------------------------|
|----------------------------------------------------|

|-5-------3----3---------0----|
|---5-------3----3^------0----|
|------------------------0----|
|------------------------2----|
|------------------------2----|
|------------------------0----|


Y eso es todo. que la pasen bien
Suggest correction
Give kudos to tab author, rate the tab!
1 2 3 4 5
comments
print report bad tab
guest
You may want to rate the tab now too:
select rating
Wanna post a correction for this tab? Suggest correction