Oops, an error
Loading. Please wait.

Espejo Bass Tab

4 views 1 this week
no commentswrite comment
1 2 3 4 5
3 more votes to show rating
add to favorites
launch autoscroll
font size
0
reset
guitar tuner
Autoscroll
slow
fast
+/-
esc
set tempo
stop
Help us to improve Ultimate-Guitar.com Take our survey!
×
intro:
riff 1
g|-----7---7/9----7--------7---7/9----7--|
d|---7---7------7---7----7---7------7----|
a|-5-------------------5-----------------|
e|---------------------------------------|todo esto se repite en los versos

es una parte de ese espejo
que no refleja pero mira

riff 2
g|---------------------------------------------------|
d|---------------------------------------------------|
a|---------------------------------------------------|
e|--2-----------------------5------5h7h5----2--------|
es el que sabe ver el fondo
el fondo de la materia

riff 1
ese pedazo me persigue
me invita que brinque al abismo

riff 2
Asi sabre si tengo alas
asi sabre si sobrevivo

asi sabre...

g|-----7---7/9----7--------5----5/7---5--|
d|---7---7------7---7----5---5------5---5|
a|-5----------5--------3-----------------|
e|---------------------------------------|

g|---3----3/5---3--------7---7/9----7----|
d|-3---3------3---3----7---7------7------|
a|1---------1--------5-------------------|
e|---------------------------------------|

riff 2
es el que grita cuando callo
el que se levanta cuando caigo

riff 3
g|---------------------------|
d|---------------------------|
a|----------------5----------|
e|-2------5---------------9--|
el que me abraza cuando lloro
el que me cuida cuando enloquezco

riff 4
g|------------------------------------|
d|------------------------------------|
a|---------------------555555---------|
e|-22222----555555-----------/999999--|
el que me dice que estoy vivo

(se toca el riff 4 hasta que se termine la cancion)

esta es mi primera transcripcion de bajo ya que apenas solo
el hace dos dias me compre un bajo aunque mi primer instrumento
que toque y que siguo tocando es la guitarra.  bueno espero que la
encuentren correcta y que les guste.
Suggest correction
Give kudos to tab author, rate the tab!
1 2 3 4 5
comments
print report bad tab
guest
You may want to rate the tab now too:
select rating
Wanna post a correction for this tab? Suggest correction