Oops, an error
Loading. Please wait.

Estoy Cansado Bass

4 views 1 this week
no commentswrite comment
1 2 3 4 5
3 more votes to show rating
add to favorites
launch autoscroll
font size
0
reset
guitar tuner
×
Best way to learn
"Estoy Cansado"
Autoscroll
slow
fast
+/-
esc
set tempo
stop
Te recomiendo escucharla un par de veces para que agarres 
bien los tiempos...

El bajo entra junto con la bateria...

  Am
G|------------|------------|------------|------------|
D|------------|------------|------------|------------|
A|-------3h5s0|-------3h5s0|------3h5p3s|------------|
E|5-55-5------|5-55-5------|5-55-5------|5--5-5-0-3-5|

G|------------|------------|------------|--------------|
D|------------|------------|------------|-----797------|
A|------3h5p3s|-------3h5s0|-------3h5s0|----0---757---|
E|5-55-5------|5-55-5------|5-55-5------|5-55-------8s0|
                                             * Rapido *
  Cansado de...                        
  C            B            A 
G|------------|------------|------------||
D|------------|------------|------------||
A|33-33-33-33-|22-22-22-22-|000-0-00-000||
E|------------|------------|------------||

  Liberame...
  A            B    
G|------------|-----------||
D|------------|-----------||
A|0--0--0?-0--|2--2--2--2-||
E|------------|-----------||

  PUENTE
  F#           G#m          A            B  
G|------------|------------|------------|------------|
D|------------|------------|------------|------------|
A|-------3s4--|-------5s6--|-------6s7--|-----8s9----|
E|2--2-2------|4--4-4------|5--5-5------|7-77----7-77|
 *  2 veces   *  2 veces   *   2 veces  *  

  FINAL
  Am
G|----------------|------------||
D|----------------|------------||
A|----------3h5b3-|------------||
E|5--5-5--5-------|5--5-5?0h3-3||

Dudas preguntas o comentarios escribe a:
laburka@
Suggest correction
Give kudos to tab author, rate the tab!
1 2 3 4 5
comments
print report bad tab
guest
You may want to rate the tab now too:
select rating
Wanna post a correction for this tab? Suggest correction