Oops, an error
Loading. Please wait.

Hoy Tab

version 2
version 2

Whole song

19 views 1 this week
no commentswrite comment
1 2 3 4 5
3 more votes to show rating
add to favorites
launch autoscroll
font size
0
reset
how to read this tab
guitar tuner
Autoscroll
slow
fast
+/-
esc
set tempo
stop
Help us to improve Ultimate-Guitar.com Take our survey!
×
F#m7            E
Hoy te voy a velar
     Am          EM7 G6 F#m7 CM7
tu piel voy a besar
F#m7          E
Hoy voy a alejar
        Am                  EM7 G6 F#m7 CM7
a los buitres que vienen a ti
 E                 F#m7
Hoy no es un dia comun
             C#m
hoy te escaparas
 E                 F#m7
Hoy no es un dia comun
            C#m-E
hoy te elevaras

F#m7         E
Hoy te raptare
         Am            EM7 G6 F#m7 CM7
sere tu heroe, te salvare
 E                  F#m7
Hoy no es un dia comun(no es un dia comun)
             C#m
hoy te escaparas
 E                  F#m7
Hoy no es un dia comun( no es un dia comun)
             C#m
hoy te elevaras...

Solo:
e---------------------------------------------------------------------
B-------9-9/10-9-9/10~-12-/10-14/12-16~-16-17-16-17-14----------------
G----11---------------------------------------------------------------
D-11------------------------------------------------------------------


e--------------------------------------------------------------------
B------9-10-9---10/12-10-9/7-7-----10--14/16-14-17~-19~-17/16-14-----
G---11--------11--------------11-11--11------------------------------
D-11------------------------------------------------------------------
Suggest correction
Give kudos to tab author, rate the tab!
1 2 3 4 5
comments
print report bad tab
guest
You may want to rate the tab now too:
select rating
Wanna post a correction for this tab? Suggest correction