Oops, an error
Loading. Please wait.

La Vida No Es Igual Bass Tab

22 views 1 this week
no commentswrite comment
1 2 3 4 5
3 more votes to show rating
add to favorites
launch autoscroll
font size
0
reset
guitar tuner
×
Best way to learn
"La Vida No Es Igual"
Autoscroll
slow
fast
+/-
esc
set tempo
stop
  Intro con percusiones...  Que bonito es...
  G#m                       G#m 
G|-------------------------|---------------------------|
D|6--6v--6---6--4v--6-4-6--|6-?6v--6---6?-4v--6-4-6----|
A|--6-----6---6------6---6-|--6-----6---6------6----6--|
E|-------------------------|---------------------------|
                           |..........2 veces..........|
  Pero cuando caminas...
  Em            Bm            Bb
G|-------------|------------|---||
D|22--22?22--22|------------|---||
A|-------------|2-22-22-22-2|-1-||
E|-------------|------------|---||

  G#m
G|------------------------|-------------||
D|---------------4s6-4----|-------------||
A|-------6-4-----------6-4|-----6--4----||
E|4-4--4-----4-4----------|4--4------4-4||
 |........3 veces.........|

  Que bonito es...            Pero cuando caminas...
 G#m                         Em            Bm            Bb
G|------------|--------------|-------------|------------|---|
D|------------|--------------|-------------|------------|---|
A|------------|--------------|-------------|------------|---|
E|4-4------4-4|----4-4----4-4|00-?00-00--00|7-77-77-77-7|-6-|

  G#m
G|------------------------||
D|---------------4s6-4----||
A|-------6-4-----------6-4||
E|4-4--4-----4-4----------||
 |.........4veces.........|

Sabe abuela...
  A            C#m          A            Bm
G|------------|------------|------------|-------------|
D|------------|------------|------------|-------------|
A|------------|4-44-44-44-4|------------|-------------|
E|5-55-55-55-5|------------|5-55-55-55-5|7-77-77-77-7-|

 Puente
  C#m
G|------------|------------|--------------||
D|------------|------------|--------------||
A|7s4---4-4---4-4---4-4---------4-4--4-3--||
E|------------|----------16s4------------6||

  Que bonito...             Pero cuando te mezclas...
  G#m                       Em          Bm            Bb
G|------------|------------|-----------|------------|---|
D|------------|------------|22-22-22-22|------------|---|
A|------4h6---|------4s6---|-----------|2-22-22-22-2|-1-|
E|4--4--------|4--4--------|-----------|------------|---|
              |..7 veces...| 
  ...igual...
  G#m
G|------------------------|----------------||
D|------------4s6-4-------|----------------||
A|----6-4-----------6-4---|----------------||Asi hasta el
E|4-4-----4-4-------------|4-4-4-4-4-4-4-4-||solo de arpa

En el solo de violines con la base de la palma de la mano derecha 
hace un slide en la cuerda E del traste 16 al 4.

Dudas preguntas o comentarios escribe a:
laburka@
Suggest correction
Give kudos to tab author, rate the tab!
1 2 3 4 5
comments
print report bad tab
guest
You may want to rate the tab now too:
select rating
Wanna post a correction for this tab? Suggest correction