Oops, an error
Loading. Please wait.

La Vida No Es Igual Tab

version 2
version 2

Whole song

22 views 3 this week
no commentswrite comment
1 2 3 4 5
3 more votes to show rating
add to favorites
launch autoscroll
font size
0
reset
how to read this tab
guitar tuner
×
Best way to learn
"La Vida No Es Igual"
Autoscroll
slow
fast
+/-
esc
set tempo
stop
Esta la parte que ejecuta el arpa; transcrita para guitarra

   G#   B             A
e--11--11--|----------11--12-11-----|
b--9---12--|------12--12--------12--|
c------13--|--13--13----------------|

Guitarra
   G#               B          A          Bcej7 
e--4-------4--|-3---------|-5------5-|-7------7-|
b--4--4----4--|-5--5----5-|-5--5---5-|-7--7---7-|
g--4--4-4--4--|-5--5-5--5-|-6--6-6-6-|-8--8-8-8-|
D--6--6-6-----|-5--5-5----|-7--7-7---|-9--9-9---|
A--6----------|-3---------|-7--------|-9--------|
E--4----------|-----------|-5--------|-7--------|

G#        B
Que bonito es caminar
G#            B
cuando tienes arena en los pies
A                         Bcej7
pero cuando caminas entre vidrios
              G#  
la vida no es igual

G#
no es igual


Que bonito es soñar
y soñar que puedes volar
pero cuando te mueves entre muertos 
la vidano no es igual

no es igual

A                     C#m
¿Sabe abuela?un dia me dieron
A                         B
a provar de su sangre en un altar
A                 C#
y aprendi como la historia 
A                      B 
a remediar la simple esencia de pensar

que bonito es vivir 
y ser parte de la creacion
pero cuando te mezclas entre virus 
la vidano no es igual

no es igual

Este es el arpegio final que ejecuta el arpa

e---11-11-11----11--11---11--11----11-12-11-11-11-12-11-11-12---
b--9--9--9----12---12---12---12-12-12----12----12----12---------
g------------13---13---13----13---------------------------------
                            
e-11-11-12-11----15--15-15-16-----15---15-16-18-19-21-23-21-19-18-
b-12-------12--16--16----------15----15---------------------------
g-----------------------------------------------------------------
     (8 veces)        (8 veces)
e19-18-16-15-16-------11----11-12-11--|--12-11-12-11-|---11--11------
b-----------------------12------------|--11-12-12-12-|--12-12--------
g-------------------------------------|--------------|-13------------

e--15--15-16-18-19--19-----------19-19-20-19------|
b-16--------------20-----------20-----------20----|
g----------------------------21---------------21--|
Suggest correction
Give kudos to tab author, rate the tab!
1 2 3 4 5
comments
print report bad tab
guest
You may want to rate the tab now too:
select rating
Wanna post a correction for this tab? Suggest correction