Oops, an error
Loading. Please wait.

No Dejes Que Tab

version 1
version 1

Acoustic

Interactive

4,221 views 1 this week
no commentswrite comment
1 2 3 4 5
x 5
add to favorites
launch autoscroll
font size
0
reset
how to read this tab
guitar tuner
Autoscroll
slow
fast
+/-
esc
set tempo
stop
Help us to improve Ultimate-Guitar.com Take our survey!
×
BUENO ESPERO Q LES GUSTE ESTA GRAN ROLA COMO LO ES NO DEJES QUE
DE LOS SEÑORES DE JAGUARES SACADA POR MI:

ES LA INTRODUCCION DEL VAMPIRO Y DESPUES SIGUE LA PARTE DE SAUL 
E|-------------------------------------------------------------------14------
B|-5/7-7-5---8--------------7/5-5/7--5----7/5---8---10--12--14-14-12----15-15
G|---------7---6-7-6-------------------7------7---------------------14-0-----
D|-0-0-0-0---0-------9-7-7--0-0-0-0--0----0-0---0----0---0---0--0--0-----0--0
A|---------0---0-0-0-------------------0------0----------------------0-------
E|---------------------------------------------------------------------------

ESTA ES LA PARTE Q TOCA SAUL HERNANDEZ

   D       G        A    Asus
--2-2-2---3-3-3---0-0-0---------------- se repite 
--3--3-3--3--3-3--2--2-2--2--2--0------
--2-----2-0-----0-2-----2--2--2--------    dos
--0-------0-------2------4--2--0-0-----
--0-------2-------0--------------------   veces
--0-------3-------0--------------------

Aqui comienza a cantar SAUL 

  D       G       A      Asus
  Cuando atravez del vaso
--2-2-2---3-3-3---0-0-0-----------------
--3--3-3--3--3-3--2--2-2--2--2--0-------
--2-----2-0-----0-2-----2--2--2---------
--0-------0-------2------4--2--0-0------
--0-------2-------0---------------------
--0-------3-------0---------------------
  
  D       G       A     Asus
  veo atravez del tiempo
--2-2-2---3-3-3---0-0-0-----------------
--3--3-3--3--3-3--2--2-2--2--2--0-------
--2-----2-0-----0-2-----2--2--2---------
--0-------0-------2------4--2--0-0------
--0-------2-------0---------------------
--0-------3-------0---------------------


f#m       G            A      Asus
Donde los sentidos se dislocan
--2-2-2---3-3-3---0-0-0-----------------
--2--2-2--3--3-3--2--2-2--2--2--0-------
--2-----2-0-----0-2-----2--2--2---------
--4-------0-------2------4--2--0-0------
--4-------2-------0---------------------
--2-------3-------0---------------------


f#m       G            A      Asus
Donde los temores se evaporan
--2-2-2---3-3-3---0-0-0-----------------
--2--2-2--3--3-3--2--2-2--2--2--0-------
--2-----2-0-----0-2-----2--2--2---------
--4-------0-------2------4--2--0-0------
--4-------2-------0---------------------
--2-------3-------0---------------------

F       C       G       G
 Y no se     por que
-1-1-1---0-0-0---3-3-3---3-3-3------------
-1--1-1--1--1-1--3--3-3--3--3-3-----------
-2-----2-0-----0-0-----0-0-----0----------
-3-------2-------0-------0----------------
-3-------3-------2-------2----------------
-1-------3-------3-------3----------------

 F          C         G
 no me importa saber por que
-1-1-1---0-0-0---3-3-3---3-3-3------------
-1--1-1--1--1-1--3--3-3--3--3-3-----------
-2-----2-0-----0-0-----0-0-----0----------
-3-------2-------0-------0----------------
-3-------3-------2-------2----------------
-1-------3-------3-------3----------------

G             Pausa
No dejees que
             Am
nos coma el diablo amor
             Bm
que se trage tu calor
           C        
que erupte mi dolor


      G             
No dejees que
             Am
nos coma el diablo amor
             Bm
que se trage tu calor
           C
que erupte mi dolor

      G
No dejeeees que
             Am
Nos coma el diaaabloaaamooor
Bm       C
Haaaaaaa haaaaaa
G              Am
haaaoaaaaAAAA  AAAAAA
Bm       G     Am   Bm
huohuoa  huo huo
C            C      C 
AAAAAAAAAAAAAA 


ESAT ROLA VA DEDICADA PARA TODOS MIS AMIGOS EN ESPECIAL LA BANDA
DEL HOLANDES Y A KATHY, EL POLLO Y LIZ.
Suggest correction
comments
print report bad tab
guest
You may want to rate the tab now too:
select rating
Wanna post a correction for this tab? Suggest correction