Oops, an error
Loading. Please wait.

Parpadea Tab

version 1
version 1

Whole song

5 views 1 this week
no commentswrite comment
1 2 3 4 5
3 more votes to show rating
add to favorites
launch autoscroll
font size
0
reset
how to read this tab
guitar tuner
Autoscroll
slow
fast
+/-
esc
set tempo
stop
Help us to improve Ultimate-Guitar.com Take our survey!
×
B |-8--|-8-----|-7--|-----7-------7---------|-8--|-8-----|
G |-9--|---9---|-9--|---9---9---9---9---9---|-9--|---9---|
D |-9--|-----9-|-9--|-9-------9-------9---9-|-9--|-----9-|

B |-7-|-----7-------7---------|-8-|---8---|-7-|-----7-------7---------|
G |-9-|---9---9---9---9---9---|-9-|-9-----|-9-|---9---9---9---9---9---|
D |-9-|-9-------9-------9---9-|-9-|-----9-|-9-|-9-------9-------9---9-|

B |-8-|---8---|-9-|
G |-9-|-9-----|-9-|
D |-9-|-----9-|-7-|


 solo 1 (1:16)
e|---------14-|--------------|---------------|----------|
B|-15--12-----|-14h15-14-----|---------------|-3--2h3p2-|
G|------------|-----------12-|---------------|----------|
D|------------|--------------|-4-5-4/2-0---0-|----------|
A|------------|--------------|-----------4---|----------|

este riff va con siguiente verso 1:30
E|--------------------------------|
B|-5-5/7--7/8--8/10--7--7\8--7~-5-| x2

Esto lo toca vampiro (2:33)

B|---|-12-10----10-12-12-|----|-12-10----10-12-12-|
G|---|-------11----------|----|-------11----------|
D|-9-|-------------------|-11-|-------------------|

e|----|-------------------|-12--10-9-10-9-10-9-|
B|----|-12-10----10-12-12-|--------------------|
G|----|-------11----------|--------------------|
D|-12-|-------------------|--------------------|

Y este es el solo que toca Saúl (al menos en vivo)
G|-7-7-7-7-9b-|-7--7-7-9-6-|-10b----|-------6-7--6-|---6-|
D|-(2:45)-----|-(2:50)-----|-(2:53)-|-9-9-9--------|-9---|

  (3:00)
B|------------12---15bb--15-15-15-15-14-14-14-|------------12-|19bx3-19/22-|
G|-12-14-16-16--------------------------------|-12h14-12h14---|------------|


                                         (3:18)              
e|------------12-|-19bx3-19/22--|-19----------------|
B|-12h14-12h14---|--------------|----14-14-15-------|
G|---------------|--------------|-------------14-16-|
D|---------------|--------------|-------------------|

   (3:28)
e|-15-15-15-15-14--14-14-14-12--12-12-12-10--|
B|-------------------------------------------|

e|-10-10-10-9--9-9-9-7--7-7-7--5-5-5-3-------|
B|-------------------------------------------|
  (3:36)
e|-15-15-15-15-14--14-14-14-12--12-12-12-15--|
B|-------------------------------------------|

e|---------------------------------------------------|
B|-15-15-15-14--14-14-14-12--12-12-12-10--10-10-10-8-|


   (3:42)
e|-----------------------|----------------------------|
B|-14-14-15--------------|----------14-15-------------|
G|-----------------------|----------------------------|
D|-11-11-12-12h14p12--11-|-12-14-12-11-12-12h14p12-11-|
Suggest correction
Give kudos to tab author, rate the tab!
1 2 3 4 5
comments
print report bad tab
guest
You may want to rate the tab now too:
select rating
Wanna post a correction for this tab? Suggest correction