Oops, an error
Loading. Please wait.

Parpadea Tab

version 2
version 2

Whole song

8 views 1 this week
no commentswrite comment
1 2 3 4 5
3 more votes to show rating
add to favorites
launch autoscroll
font size
0
reset
how to read this tab
guitar tuner
Autoscroll
slow
fast
+/-
esc
set tempo
stop
Help us to improve Ultimate-Guitar.com Take our survey!
×
Introdución
se toca 2 veces
E-------------------------------
B--5---8--5-------7----7-----7--
G--5--------5-----9-----9-----9-
D--7--------------9---9----9----
A-----------------7-------------
E-------------------------------

verso(guitarra electrica)
guiatarra acustica toca los acordes
       A           C       F       Em
E----------------------------5-----3-----
B----5---7---5-------8----6-------5--5---
G---5--5---5-------5-----5-5-----4----4--
D--7--------------5-----3----------------
A----------------------------------------
E----------------------------------------
Coro(Bm-F#m-E)
E-----------------------0--
B----------------------0---
G--4~~-----2~~--------0----
D--4~~-----4~~---2---------
A----------4~~---2---2-----
E----------------0--0------

primer solo
E----------------------------------------------------
B----------------------------------------------------
G--18~--15-15--17-18-17-15---------------------------
D--------------------------15------------------------
A------------------------------10--7-6-4---4-6-6-7-7-
E----------------------------------------------------

este riff acompaña el segundo verso
E----------------------------------------
B--5-5/7--7/8--8-10-8--7-7-7-8-10-8-7~-5-
G----------------------------------------

EL Solo final te lo quedo debiendo.
Suggest correction
Give kudos to tab author, rate the tab!
1 2 3 4 5
comments
print report bad tab
guest
You may want to rate the tab now too:
select rating
Wanna post a correction for this tab? Suggest correction