Oops, an error
Loading. Please wait.

Parpadea Tab

version 3
version 3

Whole song

7 views 1 this week
no commentswrite comment
1 2 3 4 5
3 more votes to show rating
add to favorites
launch autoscroll
font size
0
reset
how to read this tab
guitar tuner
Autoscroll
slow
fast
+/-
esc
set tempo
stop
Help us to improve Ultimate-Guitar.com Take our survey!
×
Esta es mas o menos la introducción de esta excelente
rola. Cuando la canción es en vivo Saúl Toca los mismos
acordes, pero con un arpegio diferente.

|----------|------------------|----------|
|-8--------|-8--(8)-----------|-7--------|
|-9--------|--------9--(9)----|-9--------|
|-9--------|---------------9--|-9--------|
|----------|------------------|----------|
|----------|------------------|----------|


|---------------|----------|------------------|
|-7------7------|-8--------|-8--(8)-----------|
|---9------9----|-9--------|--------9--(9)----|
|------9------9-|-9--------|---------------9--|
|---------------|----------|------------------|
|---------------|----------|------------------|


|----------|---------------|----------|
|-7--------|-7------7------|-8--------|
|-9--------|---9------9----|-9--------|
|-9--------|------9------9-|-9--------|
|----------|---------------|----------|
|----------|---------------|----------|


|------------------|----------|----------------|
|--------8--(8)----|-7--------|-7------7-------|
|-9--(9)-----------|-9--------|---9------9-----|
|---------------9--|-9--------|------9------9--|
|------------------|----------|----------------|
|------------------|----------|----------------|

Primer solo (vampiro)
|-----------14--|-----------------|-------------|--------------|
|-15----12------|-14-15-14--------|-------------|----3--2-3-2--|
|---------------|-------------12--|-0--2----0---|--------------|
|---------------|-----------------|-----------3-|-2------------|
|---------------|-----------------|-------------|--------------|
|---------------|-----------------|-------------|--------------|


Esto lo toca vampiro despues de segunda estrofa mientras
Saúl dice 'haaaaaaaaaa, ohhhhhhhhhhhhhh'.

 |----------|-------------------------|-----------|-------------------------|
|----------|-12-10----10-12-12-(12)--|-----------|-12-10----10-12-12-(12)--|
|----------|-------11----------------|-----------|-------11----------------|
|-9--------|-------------------------|-11--------|-------------------------|
|----------|-------------------------|-----------|-------------------------|
|----------|-------------------------|-----------|-------------------------|


|-----------|-------------------------|-12--10-9-10-9-10-9--(9)-|
|-----------|-12-10----10-12-12-(12)--|-------------------------|
|-----------|-------11----------------|-------------------------|
|-12--------|-------------------------|-------------------------|
|-----------|-------------------------|-------------------------|
|-----------|-------------------------|-------------------------|

Y este es el solo que toca saúl (al menos en vivo)

|----------|------------|--------------|-----------------|---------|
|----------|------------|--------------|-----------------|---------|
|-7b11r(7)-|-7--7-7-9-6-|-(6)-9b11r(9)-|-------6-7-7---6-|---6-----|
|----------|------------|--------------|-9-9-9-----------|-9-------|
|----------|------------|--------------|-----------------|---------|
|----------|------------|--------------|-----------------|---------|

Cualquier cosa, escribanme a mi correo electrónico.
Suggest correction
Give kudos to tab author, rate the tab!
1 2 3 4 5
comments
print report bad tab
guest
You may want to rate the tab now too:
select rating
Wanna post a correction for this tab? Suggest correction