Oops, an error
Loading. Please wait.

Por Un Beso Bass

51 views 1 this week
no commentswrite comment
1 2 3 4 5
3 more votes to show rating
add to favorites
launch autoscroll
font size
0
reset
guitar tuner
×
Best way to learn
"Por Un Beso"
Autoscroll
slow
fast
+/-
esc
set tempo
stop
El bajo en esta rola es un poco extraño , te recomiendo
escucharla un par de veces para que agarres bien los
tiempos...

Intro                    |Una historia...
  E            C#m        |E           C#m 
G|------------|-----------|-----------|----------|
D|------------|-----------|-----------|----------|
A|------------|-4---------|-----------|4---4-4s0-|
E|12-s-0---0--|-----------|0----0--0--|----------|
 |....... 2 veces ........|....... 2 veces ......|

  E            C#m         E           C#m     
G|------------|-----------|-----------|----------|
D|------------|-----------|-----------|----------|
A|-----4------|4----4-4s0-|7------7-7-|4----4--4-|
E|0------0--0-|-----------|-----7-----|----------|

  E            C#m         E           C#m     
G|------------|-----------|-----------|-----------|
D|------------|-----------|-----------|-----------|
A|------------|4s0-4-4-4h6|-----------|4s1-4-4-4h6|
E|0-----0--0--|-----------|0----0--0--|-----------|

  E            C#m         E           C#m     
G|------------|-----------|-----------|-----------|
D|------------|-----------|-----------|-----------|
A|7-----7--7--|4s1-4-4-4h6|7----7--7--|4s1-4-4-4h6|
E|------------|-----------|-----------|-----------|

  E            C#m              
G|------------|-----------|-|
D|------------|-----------|-|
A|7---7-7-
Suggest correction
Give kudos to tab author, rate the tab!
1 2 3 4 5
comments
print report bad tab
guest
You may want to rate the tab now too:
select rating
Wanna post a correction for this tab? Suggest correction