Oops, an error
Loading. Please wait.

Por Un Beso Tab

version 1
version 1

Whole song

187 views 3 this week
no commentswrite comment
1 2 3 4 5
3 more votes to show rating
add to favorites
launch autoscroll
font size
0
reset
how to read this tab
guitar tuner
×
Best way to learn
"Por Un Beso"
Autoscroll
slow
fast
+/-
esc
set tempo
stop
INTRO

   Emaj7        C#m7
e|-11/7---7-7-7/4-----------------
b|--------------------------------
g|-13/9---8-8-8/6-----------------

   Emaj7        C#m7
e|-11/7---7-7-7-------------------
b|---------------9-10-9-----------
g|-13/9---8-8-8--9-9--9-----------


RIFF1.

e|-12--12--12/9-----
b|-12--12--12/9-----
g|------------------


RIFF2. DISTOR

e|--2--4--5-------------------
b|----------------------------
g|----------------------------
D|--4--6--7-------------------

        E                 C#m7
Una historia enferma, una virgen vieja,
     E                 C#m7 RIFF1.
un amor que busca ser amado.
     E                 C#m7
Una pasión herida, una vidente ciega,
     E               C#m7
una colección de tristezas.

Emaj7 C#m7-5   Emaj7   C#m7-5

(EN ESTE VERSO PUEDE ACOMPAÑARSE MUTUAMETE EL INTRO CON LOS ACORDES)

         E                  C#m7
Está la luna en celo, tu presencia en buda,
       E                C#m7 RIFF1.
tu iluminación en mi guarida.
     E                  C#m7
Una ninfa triste, un centauro loco,
       E                   C#m7
una sirena en busca de un abrazo.

CORO  EL RASGUEO ESTA EN FUNCION DE LA TRANSICION DE A a Asus
Y ESE ARREGLO EN LO PERSONAL LO HAGO CON EL DEDO MEÑIQUE,
YA QUE DE ESTA FORMA NO SE PIEDE UNO EN LOS TIEMPOS

e|-(0)--(0)-(0)-(0)---(0)-(0)--(0)--(0)-(0)-(0)---(0)-(0)---
b|--0h2--2---2---2p0---0---0----0h2--2---2---2p0---0---0----
g|--2----2---2---2-----2---2----2----2---2---2-----2---2----
D|--2----2---2---2-----2---2----0----0---0---0-----0---0----
A|--0----0---0---0-----0---0----0----0---0---0-----0---0----
E|----------------------------------------------------------
       A    Aaua    A   Asus    Dmaj7   Dsus  Dmaj  Dsus
Por un beso, se alteró el univ--erso,

e|-(0)--(0)-(0)-(0)---(0)-(0)---2--4--5--
b|--0h2--2---2---2p0---0---0----0--0--0--
g|--2----2---2---2-----2---2----x--x--x--
D|--4----4---4---4-----4---4----4--4--4--
A|--4----4---4---4-----4---4----5--5--5--
E|--X----X---X---X-----X---X----x--x--x--
           F#m                   D* X2( SEGUNDA GUITARRA RIIF2.)
y nos condenaron, a no tocarnos más.


e|-(0)--(0)-(0)-(0)---(0)-(0)--(0)--(0)-(0)-(0)---(0)-(0)-
b|--0h2--2---2---2p0---0---0----0h2--2---2---2p0---0---0--
g|--2----2---2---2-----2---2----2----2---2---2-----2---2--
D|--2----2---2---2-----2---2----0----0---0---0-----0---0--
A|--0----0---0---0-----0---0----0----0---0---0-----0---0--
E|--------------------------------------------------------
       A    Aaua    A   Asus   Dmaj7   Dsus  Dmaj  Dsus
Te cuento, que en la   mare--a

e|-(0)--(0)-(0)-(0)---(0)-(0)---2--4--5--
b|--0h2--2---2---2p0---0---0----0--0--0--
g|--2----2---2---2-----2---2----x--x--x--
D|--4----4---4---4-----4---4----4--4--4--
A|--4----4---4---4-----4---4----5--5--5--
E|--X----X---X---X-----X---X----x--x--x--
           F#m                   D* X2  ( SEGUNDA GUITARRA RIIF2.)
hay una esfera, es la resurección.

   Emaj7   C#m7  RASGUEO
e|-7--------4-------------------
b|------------------------------
g|-8--------6-------------------

      E                 C#m7
Unas manos únicas, unos labios solos,
       E               C#m7  RIFF1.
un hermoso ser está perdido.
       E                  C#m7
Es un cuento viejo, es la propia vida,
       E                C#m7
es la sangre la que nos llama.

Coro:
e|-(0)--(0)-(0)-(0)---(0)-(0)--(0)--(0)-(0)-(0)---(0)-(0)---
b|--0h2--2---2---2p0---0---0----0h2--2---2---2p0---0---0----
g|--2----2---2---2-----2---2----2----2---2---2-----2---2----
D|--2----2---2---2-----2---2----0----0---0---0-----0---0----
A|--0----0---0---0-----0---0----0----0---0---0-----0---0----
E|----------------------------------------------------------
       A    Aaua    A   Asus    Dmaj7   Dsus  Dmaj  Dsus
Por un beso, se alteró el univ--erso,

e|-(0)--(0)-(0)-(0)---(0)-(0)---2--4--5--
b|--0h2--2---2---2p0---0---0----0--0--0--
g|--2----2---2---2-----2---2----x--x--x--
D|--4----4---4---4-----4---4----4--4--4--
A|--4----4---4---4-----4---4----5--5--5--
E|--X----X---X---X-----X---X----x--x--x--
           F#m                   D* X2( SEGUNDA GUITARRA RIIF2.)
y nos condenaron, a no tocarnos más.


e|-(0)--(0)-(0)-(0)---(0)-(0)--(0)--(0)-(0)-(0)---(0)-(0)-
b|--0h2--2---2---2p0---0---0----0h2--2---2---2p0---0---0--
g|--2----2---2---2-----2---2----2----2---2---2-----2---2--
D|--2----2---2---2-----2---2----0----0---0---0-----0---0--
A|--0----0---0---0-----0---0----0----0---0---0-----0---0--
E|--------------------------------------------------------
       A    Aaua    A   Asus   Dmaj7   Dsus  Dmaj  Dsus
Te cuento, que en la   mare--a

e|-(0)--(0)-(0)-(0)---(0)-(0)---2--4--5--
b|--0h2--2---2---2p0---0---0----0--0--0--
g|--2----2---2---2-----2---2----x--x--x--
D|--4----4---4---4-----4---4----4--4--4--
A|--4----4---4---4-----4---4----5--5--5--
E|--X----X---X---X-----X---X----x--x--x--
           F#m                   D* X2  ( SEGUNDA GUITARRA RIIF2.)
hay una esfera, es la resurección.

PUEDEN IR JUGANDO CON LOS ACORDES DE ENTRE A Asus DMaj7 Dsus


ACORDES

         E A D  G B E
EMaj7    7 7 9  8 9 7
C#m7     4 4 6  4 5 4
C#m7-5   9 9 11 9 9 9
E        0 7 6  4 5 0
A        0 0 2  2 2 0  ó  577655
Asus     0 0 2  2 0 0  ó  577400
DMaj7    X 0 0  2 2 2
Dsus     X 0 0  2 0 0
D*       X 5 4  X 2 0
F#m      X 4 4  2 2 0
F#m7     X 4 4  2 0 0

DUDAS Y/O COMENTARIOS ESCRIBIR A alfa_omega22@
Suggest correction
Give kudos to tab author, rate the tab!
1 2 3 4 5
comments
print report bad tab
guest
You may want to rate the tab now too:
select rating
Wanna post a correction for this tab? Suggest correction