Oops, an error
Loading. Please wait.

Por Un Beso Tab

version 2
version 2

Whole song

20 views 3 this week
no commentswrite comment
1 2 3 4 5
3 more votes to show rating
add to favorites
launch autoscroll
font size
0
reset
how to read this tab
guitar tuner
×
Best way to learn
"Por Un Beso"
Autoscroll
slow
fast
+/-
esc
set tempo
stop
intro
e--11~--7~--9-9----------11~--7--------|
b---7~--9~--7-7--7--7~----7~--9--7--9--|
g------------------11~-----------9-----|

Verso
e--11~--7~--9-7------7-7--------11~--7~---9-7-------7-7---|
b---7~--9~------9~---9-9---9-----7~--9~------9--9-9-----9-|
g-------------------------11---------------------9--------|

coro
e---------------------|---------------------|-2--2-2--0-0--2-3-|
b--2--0---0-0--2--2-2-|----4--2-2--0-0--2-2-|-3--3-3--3-3--2-3-|
g--2---2--2-2--2--2-2-|--2----2-2--0-0--2-2-|------------------|
D---------------------|---------------------|-0----------------|
A--0------------------|---------------------|------------------|
E---------------------|--2------------------|------------------|

2 veces
D------------|
A-9-9--11-12-|
E------------|

este es el slide que acompaña el final.

e--10/-9--12---22-10-19---10---12*--13----|
b-----------------------------------------|
g-----------------------------------------|
Suggest correction
Give kudos to tab author, rate the tab!
1 2 3 4 5
comments
print report bad tab
guest
You may want to rate the tab now too:
select rating
Wanna post a correction for this tab? Suggest correction