Oops, an error
Loading. Please wait.

Quisiera Ser Alcohol (Primer Instinto) Tab

version 2
version 2

Whole song

49 views 1 this week
no commentswrite comment
1 2 3 4 5
3 more votes to show rating
add to favorites
launch autoscroll
font size
0
reset
how to read this tab
guitar tuner
Autoscroll
slow
fast
+/-
esc
set tempo
stop
Help us to improve Ultimate-Guitar.com Take our survey!
×
Este es el intro de esta chingona rola


Intro:
E|--------------------------------------------------------------------|
B|--5-5-5---5-----5-----5-5-5---5-----5-----5-5-5---5-----5-----5-5-5-|
G|--5-5---5---5-----5---4-4---4---4-----4---4-4---4---4-----4---4-4-4-|
D|--4-4---------4-----4-5-5---------5-----5-5-5---------5-----5-4-4---|
A|--5-5-----------------5-5-----------------4-4-----------------5-5---|
E|--------------------------------------------------------------------|

Estos son los arreglos de los acordes que toca Saúl escuchen bien
la rola para que sepan como va el rasgueo (el acorde G del coro
es el normal ok) y sentirán lo que se siente ser alcohol.

     C#m     Gm6     G6      C7       A       G
E|----X-------X-------X-------X-------5-------3-----|
B|----5-------5-------5-------5-------5-------3-----|
G|----5-------4-------4-------4-------6-------4-----|
D|----4-------5-------5-------4-------7-------5-----|
A|----5-------5-------4-------5-------7-------5-----|
E|----X-------X-------X-------X-------5-------3-----|

          C#m         Gm6
Si mis plegarias no fueran
      G6            C7 (pausa)
a la virgen si no a ti.

         C#m         Gm6
Que pensarías, que dirías
         C#m            C7
si de la noche soy un pedazo.

A            G      A         G
De suelo que flota, entre tus sueños
A        G
como una perla
A              G
te saco del oscuro
A               G
te llamo por tu nombre
A                   G (pausa)
y digo que no puede ser.

Am      D     G     Em
Qui... siera ser alcohol
Am    D        G             Em
pa... ra evaporarme en tu interior
Am      D     G     Em
qui... siera ser alcohol
Am    D        G            Em
pa... ra evaporarme de una vez
      G                Em
y sentir lo que es pasión
     F                 (pausa) Am
y sentir que soy querido  una  vez.

Intro:
E|--------------------------------------------------------------------|
B|--5-5-5---5-----5-----5-5-5---5-----5-----5-5-5---5-----5-----5-5-5-|
G|--5-5---5---5-----5---4-4---4---4-----4---4-4---4---4-----4---4-4-4-|
D|--4-4---------4-----4-5-5---------5-----5-5-5---------5-----5-4-4---|
A|--5-5-----------------5-5-----------------4-4-----------------5-5---|
E|--------------------------------------------------------------------|

          C#m   Gm6
Si algún día me miras
    G6           C7
abrazado de tu sombra
A       G       A     G
no me separes, déjame solo
A        G
sin movimiento
A        G
como una lagrima
A                G
que corre por tu cuerpo
A          A           (pausa)
lamiéndote toda la piel.


Am      D     G     Em
Qui... siera ser alcohol
Am    D        G             Em
pa... ra evaporarme en tu interior
Am      D     G     Em
qui... siera ser alcohol
Am    D        G            Em
pa... ra evaporarme de una vez
      G                Em
y sentir lo que es pasión
     F                       Am
y sentir que soy querido una vez.

Gracias y saludos nuevamente a toda la flota de "volanteros" y a
mis amigas con cariño: lola, andrea, la güicha, diana, erika, susana
abigail, veronica, rosa, vanesa y a mi amor Brisa.
Suggest correction
Give kudos to tab author, rate the tab!
1 2 3 4 5
comments
print report bad tab
guest
You may want to rate the tab now too:
select rating
Wanna post a correction for this tab? Suggest correction