Oops, an error
Loading. Please wait.

Quisiera Ser Alcohol Tab

68 views 6 this week
no commentswrite comment
1 2 3 4 5
3 more votes to show rating
add to favorites
launch autoscroll
font size
0
reset
how to read this tab
guitar tuner
Autoscroll
slow
fast
+/-
esc
set tempo
stop
Help us to improve Ultimate-Guitar.com Take our survey!
×
Intro:
e|--7-7------------------7-7------------------7-7------------------7-7------|
B|--5-5-5--7-7-7--5-5-5--5-5-5--7-7-7--5-5-5--5-5-5--7-7-7--5-5-5--5-5-5-7--|
G|--------------------------------------------------------------------------|
D|--------------------------------------------------------------------------|
A|--------------------------------------------------------------------------|
E|--------------------------------------------------------------------------|

          Em
Si mis plegarias
    G?         G6/Add9
no fueran, a la virgen
        E?
si no ati

          Em
¿Que pensarias?
       G?
¿Que dirias?
         G6/Add9         E?
si de la noche, soy un pedazo


F#
Del suelo que flota 

Entre tus sueños 


F         Em
Como una perla 
   F            Em
Te saco de lo obcuro 
   F             Em
Te llamo por tu nombre
  F
Y digo que no puede ser....


 Am   Am?  G     Em
Qui siera ser alcohol
Am   Am?      G               Em
Pa...ra evaporarme en tu interior

 Am   Am?  G     Em
Qui siera ser alcohol
Am   Am?      G           Em
Pa...ra evaporarme de una vez
      G               Em
Y sentir lo que es pasion 
      F              
Y sentir que soy querido
    Am
Una vez......

Intro:
e|--7-7------------------7-7------------------7-7------------------7-7------|
B|--5-5-5--7-7-7--5-5-5--5-5-5--7-7-7--5-5-5--5-5-5--7-7-7--5-5-5--5-5-5-7--|
G|--------------------------------------------------------------------------|
D|--------------------------------------------------------------------------|
A|--------------------------------------------------------------------------|
E|--------------------------------------------------------------------------|

          Em
Si algun dia 
    G?      G6/Add9 
Me miras, abrasado
       Em?
De tu sombra


F#
No me separes, dejame solo 

Sin movimiento

F         Em
Como una lagrima
    F             Em
Que corre por tu cuerpo 
    F
Lamiendote toda la piel


 Am   Am?  G     Em
Qui siera ser alcohol
Am   Am?      G               Em
Pa...ra evaporarme en tu interior
 Am   Am?  G     Em
Qui siera ser alcohol
Am   Am?      G           Em
Pa...ra evaporarme de una vez
      G                Em
Y sentir lo que es pasion 
      F              
Y sentir que soy querido
    Am
Una vez......


    G?  E?  G6/Add9   Am?
e|--3----0----0--------0-|
B|--0----0----0--------1-|
G|--0----0----0--------2-|
D|--1----2----0--------2-|
A|--0----4----0--------0-|
E|--0----0----0--------2-|

Esta es una de mis cancines favoritas espero que les guste 
Hasta la proxima y ¡ARRIBA EL ROCK MEXICANO! ¡ARRIBA JAGUARES!
Suggest correction
Give kudos to tab author, rate the tab!
1 2 3 4 5
comments
print report bad tab
guest
You may want to rate the tab now too:
select rating
Wanna post a correction for this tab? Suggest correction