Oops, an error
Loading. Please wait.

Quisiera Ser Alcohol Chords

version 2
version 2

Whole song

133 views 3 this week
no commentswrite comment
1 2 3 4 5
2 more votes to show rating
add to favorites
launch autoscroll
font size
0
reset
transpose
0
reset
simplify chords
display chords
guitar tuner
×
Best way to learn
"Quisiera Ser Alcohol"
Autoscroll
slow
fast
+/-
esc
set tempo
stop
Esta es de una de las rolas mas chidas por favor NO LA SACEN MAL
Al final les pongo los acordes que son lo 100% de la cancion
Que vivan los JAGUARES

INTRO:Emª Pausa

           Em        Em/D#
Si mis plegarias no fueran
      Em/D         Em/C# Pausa
a la Virgen si no a ti
        Em        Em/D# 
Que pensarias que dirias
      Em/D            Em/C#
si de la noche soy un pedazo
F# 
 de suelo que flota

entre tus sueños
F           Em
 como una perla
   F           Em
te saco de lo obscuro
   F            Em
te llamo por tu nombre
  F                     Pausa
y digo que no puede ser

CORO
Am  Am/F# G      Em
Quisiera ser alcohol
Am Am/F#   G             Em
para evaporarme en tu interior
Am  Am/F# G      Em
Quisiera ser alcohol
Am Am/F#   G           Em
para evaporarme de una vez
      G               Em
y sentir lo que es pasion
      F Pausa                 Am Pausa
y sentir que soy querido una vez.

Se toca el intro
          Em    Em/D#
Si algun dia me miras
Em/D             Em/C#
abrazado de tu sombra
F#
 no me separes

dejame solo
F         Em
 sin movimiento
F         Em
como una lagrima
    G             Em
que corre por tu cuerpo
   F                   Pausa
lamiendote toda la piel.

CORO
Am  Am/F# G      Em
Quisiera ser alcohol
Am Am/F#   G             Em
para evaporarme en tu interior
Am  Am/F# G      Em
Quisiera ser alcohol
Am Am/F#   G           Em
para evaporarme de una vez
      G               Em
y sentir lo que es pasion
      F Pausa                 Am 
y sentir que soy querido una vez.

   Emª         Em      Em/D#      Em/D
e|-7-------|-0-------|-0--------|-0--------|
B|-8-------|-0-------|-0--------|-0--------|
G|-9-------|-0-------|-0--------|-0--------|
D|-9-------|-2-------|-1--------|-0--------|
A|-7-------|-2-------|-x--------|-x--------|
E|-x-------|-0-------|-x--------|-x--------| 
   F#         F        Am         Am/F#
e|-2-------|-1-------|-0--------|-0--------|
B|-2-------|-1-------|-1--------|-1--------|
G|-3-------|-2-------|-2--------|-2--------|
D|-4-------|-3-------|-2--------|-2--------|
A|-4-------|-3-------|-0--------|-0--------|
E|-2-------|-1-------|-0--------|-2--------|
   G         Em/C#
e|-3-------|-0-------|
B|-0-------|-0-------|
G|-0-------|-0-------|
D|-0-------|-2-------|
A|-2-------|-4-------|
E|-3-------|-0-------|
Suggest correction
Give kudos to tab author, rate the tab!
1 2 3 4 5
comments
print report bad tab
guest
You may want to rate the tab now too:
select rating
Wanna post a correction for this tab? Suggest correction