Oops, an error
Loading. Please wait.

Tu Reino Tab

28 views 1 this week
no commentswrite comment
1 2 3 4 5
3 more votes to show rating
add to favorites
launch autoscroll
font size
0
reset
how to read this tab
guitar tuner
×
Best way to learn
"Tu Reino"
Autoscroll
slow
fast
+/-
esc
set tempo
stop
!Que honda¡ Aqui les vas el tab de Tu Reino
esot s son los intros y los riff de las guitrras uno
y dos
leyenda: v:vibrate
_______: sigle
intro y riff 1 guitarra 1 con distor
D/--2-2-2-2-2-2-2-/2-2-2-2-2-2-/0-0-0-0-0-0-0-0-0-0-0-/
A/--0-0-0-0-0-0-0-/3-3-3-3-3-3-/1-1-1-1-1-1-1-1-1-1-1-/
E/----------------/-----------/----------------------/

Intro y riff 1 de guitarra 2
e/------/-----/-------/-----/----------/------/--------------------/
B/5v----/-6v-/--6v----/-5v-/--5___11---/--5v-/--8v---5v---5___6---/
G/-----/-----/-------/-----/----------/------/-------------------/
          F#m                 E
antes que nada quiero enseñarte a mis aliados
       Bb
son invisibles son intocables
intro y riff 1 guitarra 1 con distor
D/--2-2-2-2-2-2-2-/2-2-2-2-2-2-/0-0-0-0-0-0-0-0-0-0-0-/
A/--0-0-0-0-0-0-0-/3-3-3-3-3-3-/1-1-1-1-1-1-1-1-1-1-1-/
E/---------------/-----------/-----------------------/

Intro y riff 1 de guitarra 2
e/------/-----/-------/-----/----------/
B/5v----/-6v-/--6v----/-5v-/--5___11---/
G/-----/-----/-------/-----/----------/
los riffs enpiezan cuando se hace el cambio de A
           A      Bb A
hazlos presentes
F#m                  E
ellos me ladran como orugas
                            Bb
me dan consejos tridimensionales y a veces vuelan
intro y riff 1 guitarra 1 con distor
D/--2-2-2-2-2-2-2-/2-2-2-2-2-2-/0-0-0-0-0-0-0-0-0-0-0-/
A/--0-0-0-0-0-0-0-/3-3-3-3-3-3-/1-1-1-1-1-1-1-1-1-1-1-/
E/----------------/-----------/-----------------------/

Intro y riff 1 de guitarra 2
e/------/-----/-------/-----/----------/------/--------------------/
B/5v----/-6v-/--6v----/-5v-/--5___11---/--5v-/--8v---5v---5___6---/
G/-----/-----/-------/-----/----------/------/-------------------/
           A    Bb            A
entre arrecifes    entre arrecifes

coro
e/--7v--7v--/--7--10--7--/--7--10--/--7__10-10-7--/
B/----------/------------/------------------------/
   Bm            A6               GM7                 A
tu reino esta esfera que cubre la tierra que no tiene forma
   Bm                  A6                     GM7
tu reino son las dimensiones que reflejan tus sueños
           F#m     A Bb A
que son infinitos
intro y riff 1 guitarra 1 con distor
D/--2-2-2-2-2-2-2-/2-2-2-2-2-2-/0-0-0-0-0-0-0-0-0-0-0-/
A/--0-0-0-0-0-0-0-/3-3-3-3-3-3-/1-1-1-1-1-1-1-1-1-1-1-/
E/---------------/-------------/---------------------/

Intro y riff 1 de guitarra 2
e/------/-----/-------/-----/----------/------/--------------------/
B/5v----/-6v-/--6v----/-5v-/--5___11---/--5v-/--8v---5v---5___6---/
G/-----/-----/-------/-----/----------/------/-------------------/
F#m                 E                            Bb
de jerarquias sedentarias jeneraciones de sabios blancos

jefes indios
intro y riff 1 guitarra 1 con distor
D/--2-2-2-2-2-2-2-/2-2-2-2-2-2-/0-0-0-0-0-0-0-0-0-0-0-/
A/--0-0-0-0-0-0-0-/3-3-3-3-3-3-/1-1-1-1-1-1-1-1-1-1-1-/
E/---------------/-------------/----------------------/

Intro y riff 1 de guitarra 2
e/------/-----/-------/-----/-----------/
B/5v----/-6v-/--6v----/-5v-/--5___11---/
G/-----/-----/-------/-----/----------/
           A     Bb A
y angeles pardos
F#m                         E                                   Bb
ellos me llevan en forma de agua de este horizonte a otras fronteras

y me preparan
intro y riff 1 guitarra 1 con distor
D/--2-2-2-2-2-2-2-/2-2-2-2-2-2-/0-0-0-0-0-0-0-0-0-0-0-/
A/--0-0-0-0-0-0-0-/3-3-3-3-3-3-/1-1-1-1-1-1-1-1-1-1-1-/
E/---------------/------------/-----------------------/

Intro y riff 1 de guitarra 2
e/------/-----/-------/-----/----------/------/--------------------/
B/5v----/-6v-/--6v----/-5v-/--5___11---/--5v-/--8v---5v---5___6---/
G/-----/-----/-------/-----/----------/------/-------------------/
                   A      Bb                    A      Bb
para el fin de los siglos    para el fin de los siglos

coro
e/--7v--7v--/7--10--7/--7--10--7/7__10--10--/
B/------------------------------------------/
   Bm               A6               GM7                 A
tu reino es esta esfera que cubre la tierra que no tiene forma
   Bm                   A6                    GM7
tu reino son las dimensiones que reflejan tus sueños que
      F#m
son infinitos

solo guitarra 1 entra primero y cuando termina va la g2
A/-------------------/-2__5-5__8-8__12-13-14--/
E/--2__7-7__12-12__18/-----------------------/

solo guitarra 2
e/-------------------------10-10-10-10-10-10-10-10-10-10-/
B/-0-0-0-0-0-0-0-0-0-0-0-0-0-0-0-0-0-0-0-0-0-0-0-0-0-0-0-/

intro y riff 1 guitarra 1 con distor
D/--2-2-2-2-2-2-2-/2-2-2-2-2-2-/0-0-0-0-0-0-0-0-0-0-0-/
A/--0-0-0-0-0-0-0-/3-3-3-3-3-3-/1-1-1-1-1-1-1-1-1-1-1-/
E/---------------/------------/-----------------------/
coro
e/--7v--7v--/--7--10--7--/--7--10--7--/-7__10-10--7/
B/-------------------------------------------------/
   Bm               A6               GM7                 A
tu reino es esta esfera que cubre la tierra que no tiene forma
   Bm                   A6                    GM7
tu reino son las dimensiones que reflejan tus sueños
           F#m
que son infinitos  2x

solo final acompañado con el riif de coro 2x
e/--7v--7v--/--7--10--7--/--7--10--7--/-7__10-10--7/
B/-------------------------------------------------/
guitarra 1
e/-------------/-----------------------------/
B/-0/-2__3-3-0V/-2__3-3-2-/2--3--2--/-3-3-3-0/
   Bm
tu reino
tu reino...
Suggest correction
Give kudos to tab author, rate the tab!
1 2 3 4 5
comments
print report bad tab
guest
You may want to rate the tab now too:
select rating
Wanna post a correction for this tab? Suggest correction