Oops, an error
Loading. Please wait.

Viaje Astral Tab

22 views 1 this week
no commentswrite comment
1 2 3 4 5
3 more votes to show rating
add to favorites
launch autoscroll
font size
0
reset
how to read this tab
guitar tuner
×
Best way to learn
"Viaje Astral"
Autoscroll
slow
fast
+/-
esc
set tempo
stop
Aqui les va la mejor version de 'Viaje Astral'. Esta 
99.9% correcta porque ya van dos veces que veo al
'Vampiro' tocarla en el concierto.  Lo unico raro es 
de que para el solo vi que uso el dedal pero la otra ves
no.  

Verso: Distorcion fuerte
Coro : Limpio tipo funk
Solo : Distorcion 'Rockin' (sin dedal y suena esacto)

Intro: Bm G F#

Bm                  G          F#
Ella viajo por su balcon
   Bm                   G      F#
A construir su constelacion
   Bm                G         F#
Fuera de toda reprecion
  Bm                   G       F#   
Creo su propia abstracion material


Tu insinto fue...

e--10-10-10-10-10--12-12-12-12-12-12-12-12-12-
B--10-10-10-10-10--10-10-10-10-10-10-10-10-10-
G--11-11-11-11-11--11-11-11-11-11-11-11-11-11-
D---------------------------------------------
A---------------------------------------------
E---------------------------------------------

e--7-7-7-7-7-7-7-7-7-7-7-7-7-
B--7-7-7-7-7-7-7-7-7-7-7-7-7-
G--9-9-9-9-9-9-9-9-9-9-9-9-9-
D----------------------------
A----------------------------
E----------------------------

SOLO:
           (bend= +1 hacia arriba)
e-----------------------------------------10-sl-12-bend---------------
B--18-sl-19-bend-x3--17----sl9-bend-----------------------------------
G-----------------------12-------------14----------------9------------
D-----------------------------------12---------------------11-slide-1-
A---------------------------------------------------------------------
E---------------------------------------------------------------------

  Bm                 G            F# 
Ella dialoga con el fuego
  Bm                     G        F#
Y se desplaza entre los tiempos 
  Bm                      G       F#  
Es todo el cosmos y no es nadie
   Bm                   G         F#
Esta mas alla de lo que puedas sentir

(cuando empieza 'Esta mas alla de lo.. la 2nda guitarra toda esto)


e--10-x-10-x-10-x-10-x-10-10-10-10-
B--10-x-10-x-10-x-10-x-10-10-10-10-
G--12-x-12-x-12-x-12-x-12-12-12-12-  X3
D----------------------------------
A----------------------------------
E----------------------------------

e--12-12-12-12-12-12-12-12-12-12-12
B--10-10-10-10-10-10-10-10-10-10-10
G--12-12-12-12-12-12-12-12-12-12-12
D----------------------------------
A----------------------------------
E----------------------------------
 
Tu instinto fue.. ( ya se los puse arriba)

Bm G F#  

FIN


Si encuentran el .01 % de error mandenmelo 
a emonta3@
Apoyen al Rock en Espanol!!!!!!

I love Jamie
Suggest correction
Give kudos to tab author, rate the tab!
1 2 3 4 5
comments
print report bad tab
guest
You may want to rate the tab now too:
select rating
Wanna post a correction for this tab? Suggest correction