Oops, an error
Loading. Please wait.

Viejo El Mundo Tab

version 2
version 2

Whole song

29 views 1 this week
no commentswrite comment
1 2 3 4 5
3 more votes to show rating
add to favorites
launch autoscroll
font size
0
reset
how to read this tab
guitar tuner
Autoscroll
slow
fast
+/-
esc
set tempo
stop
Help us to improve Ultimate-Guitar.com Take our survey!
×
********************
                 *    TABS:atari  *
                ********************
                  wigaz@
                ********************

IntroX2
   Dm       A6            Dm               Gm
E|-5-X-5-X--------X-|--X--5-5-5-X-5-X-|5-5---------------|
B|-6-X-6-X--5-5-5-X-|5-X--6-6-6-X-6-X-|6-6----3-3--3-3---|
G|-7-X-7-X--6-6-6-X-|6-X--7-7-7-X-7-X-|7-7----3-3--3-3-o-|
D|-7-X-7-X--5-5-5-X-|5-X--7-7-7-X-7-X-|7-7-5--5-5--5-5-o-|
A|-5---5----7-7-7---|7----5-5-5---5---|5-5-5-------------|
E|----------5-5-5---|5----------------|----3-------------|

   Dm       A6                         Dm
       He    cometido     un pecado universal
E|-5-X-5-X--------X-|--X--------------|------------------|
B|-6-X-6-X--5-5-5-X-|5-X--5-5-5-------|-5-6--5~----------|
G|-7-X-7-X--6-6-6-X-|6-X--6-6-6-------|-7----------------|
D|-7-X-7-X--5-5-5-X-|5-X--5-5-5-------|------------------|
A|-5---5----7-7-7---|7----7-7-7-------|------------------|
E|----------5-5-5---|5----5-5-5-------|------------------|

   Dm       A6                         Dm
       El ser yo mismo    y proteger mi soledad
E|-5-X-5-X--------X-|--X--------------|------------------|
B|-6-X-6-X--5-5-5-X-|5-X--5-5-5-------|-5-6--5~----------|
G|-7-X-7-X--6-6-6-X-|6-X--6-6-6-------|-7----------------|
D|-7-X-7-X--5-5-5-X-|5-X--5-5-5-------|------------------|
A|-5---5----7-7-7---|7----7-7-7-------|------------------|
E|----------5-5-5---|5----5-5-5-------|------------------|

             C         B
       Y defender mi independencia y mi pasion
E|-------------|-------------------|
B|-10----10----|-------------------|
G|-----7-------|-12--------10------|
D|----------10-|-----10-10-----10--|
A|-------------|-------------------|
E|-------------|-------------------|

E|------------------------|----------------|
B|-10h12p10-9h10p9-9h10p9-|10/12b(13)------|
G|------------------------|----------------|
D|------------------------|----------------|
A|------------------------|----------------|
E|------------------------|----------------|

             C           B
       Y no ceder ante ninguna represion
E|-------------|-------------------|
B|-10----10----|-------------------|
G|-----7-------|-12--------10------|
D|----------10-|-----10-10-----10--|
A|-------------|-------------------|
E|-------------|-------------------|

E|------------------------|----------------|
B|-10h12p10-9h10p9-9h10p9-|10/12b(13)------|
G|------------------------|----------------|
D|------------------------|----------------|
A|------------------------|----------------|
E|------------------------|----------------|

       Dm       A6            Dm               Gm
E|-5-X-5-X--------X-|--X--5-5-5-X-5-X-|5-5---------------|
B|-6-X-6-X--5-5-5-X-|5-X--6-6-6-X-6-X-|6-6----3----------|
G|-7-X-7-X--6-6-6-X-|6-X--7-7-7-X-7-X-|7-7----3----------|
D|-7-X-7-X--5-5-5-X-|5-X--7-7-7-X-7-X-|7-7-5--5----------|
A|-5---5----7-7-7---|7----5-5-5---5---|5-5-5-------------|
E|----------5-5-5---|5----------------|----3-------------|
          Gtr2                                           |
E|------------------|-----------------|------------------|
B|------------------|-----------------|-------3--4-3~----|
G|------------------|-----------------|-------3----------|
D|------------------|-----------------|------------------|
A|------------------|-----------------|------------------|
E|------------------|-----------------|------------------|

   Dm       A6            Dm               Gm
E|-5-X-5-X--------X-|--X--5-5-5-X-5-X-|5-5---------------|
B|-6-X-6-X--5-5-5-X-|5-X--6-6-6-X-6-X-|6-6----3-3--3-3---|
G|-7-X-7-X--6-6-6-X-|6-X--7-7-7-X-7-X-|7-7----3-3--3-3---|
D|-7-X-7-X--5-5-5-X-|5-X--7-7-7-X-7-X-|7-7-5--5-5--5-5---|
A|-5---5----7-7-7---|7----5-5-5---5---|5-5-5-------------|
E|----------5-5-5---|5----------------|----3-------------|

   Dm       A6                         Dm
        He cometido un delito cerebral
E|-5-X-5-X--------X-|--X--------------|------------------|
B|-6-X-6-X--5-5-5-X-|5-X--5-5-5-------|-5-6--5~----------|
G|-7-X-7-X--6-6-6-X-|6-X--6-6-6-------|-7----------------|
D|-7-X-7-X--5-5-5-X-|5-X--5-5-5-------|------------------|
A|-5---5----7-7-7---|7----7-7-7-------|------------------|
E|----------5-5-5---|5----5-5-5-------|------------------|

   Dm       A6                         Dm
       El  descubrir que ya me puedo desdoblar
E|-5-X-5-X--------X-|--X--------------|------------------|
B|-6-X-6-X--5-5-5-X-|5-X--5-5-5-------|-5-6--5~----------|
G|-7-X-7-X--6-6-6-X-|6-X--6-6-6-------|-7----------------|
D|-7-X-7-X--5-5-5-X-|5-X--5-5-5-------|------------------|
A|-5---5----7-7-7---|7----7-7-7-------|------------------|
E|----------5-5-5---|5----5-5-5-------|------------------|

             C          B
       y darme cuenta de lo que nunca veras
E|-------------|-------------------|
B|-10----10----|-------------------|
G|-----7-------|-12--------10------|
D|----------10-|-----10-10-----10--|
A|-------------|-------------------|
E|-------------|-------------------|

E|------------------------|----------------|
B|-10h12p10-9h10p9-9h10p9-|10/12b(13)------|
G|------------------------|----------------|
D|------------------------|----------------|
A|------------------------|----------------|
E|------------------------|----------------|

             C         B
       Lo invisible me transporta al mas alla
E|-------------|-------------------|
B|-10----10----|-------------------|
G|-----7-------|-12----------10----|
D|----------10-|-----10-10-----10--|
A|-------------|-------------------|
E|-------------|-------------------|

E|------------------------|----------------|
B|-10h12p10-9h10p9-9h10p9-|10/12b(13)------|
G|------------------------|----------------|
D|------------------------|----------------|
A|------------------------|----------------|
E|------------------------|----------------|

   C#m                  E               C#m
     Y es que estamos delu-    to
E|--------------------|---------------------|
B|--------------------|-9/129--------------|
G|-6---------6---6----|---------9---9-----6-|
D|-6---------6---6----|---------9---9-----6-|
A|-4-4-4-4-4-4-4-4----|---------7---7-74-4-|
E|--------------------|---------------------|

                       E
  Crees que el tiempo afecta   la razon
E|--------------------|---------------------|
B|--------------------|-9/129--------------|
G|----------6---6-----|---------------------|
D|----------6---6-----|---------9-9-9--9--9-|
A|----------4-4-4-----|---------7-7-7--7--7-|
E|--------------------|---------------------|

       C#m             E
 Viejo el  mun  do  el es sabio
E|--------------------|----------------------|
B|--------------------|-9/129---------------|
G|------6----6---6----|----------------------|
D|------6----6---6----|----------9-9-9--9--9-|
A|------4----4-4-4----|----------7-7-7--7--7-|
E|--------------------|----------------------|

        C#m           E
    Vieja el al ma eso es sagrado
E|--------------------|----------------------|
B|--------------------|-9/129---------------|
G|------6----6---6----|----------------------|
D|------6----6---6----|----------9-9-9--9--9-|
A|------4----4-4-4----|----------7-7-7--7--7-|
E|--------------------|----------------------|

       Dm       A6            Dm               Gm
E|-5-X-5-X--------X-|--X--5-5-5-X-5-X-|5-5---------------|
B|-6-X-6-X--5-5-5-X-|5-X--6-6-6-X-6-X-|6-6----3----------|
G|-7-X-7-X--6-6-6-X-|6-X--7-7-7-X-7-X-|7-7----3----------|
D|-7-X-7-X--5-5-5-X-|5-X--7-7-7-X-7-X-|7-7-5--5----------|
A|-5---5----7-7-7---|7----5-5-5---5---|5-5-5-------------|
E|----------5-5-5---|5----------------|----3-------------|
          Gtr2                                           |
E|------------------|-----------------|------------------|
B|------------------|-----------------|-------3--4-3~----|
G|------------------|-----------------|-------3----------|
D|------------------|-----------------|------------------|
A|------------------|-----------------|------------------|
E|------------------|-----------------|------------------|

   Dm       A6            Dm               Gm
E|-5-X-5-X--------X-|--X--5-5-5-X-5-X-|5-5---------------|
B|-6-X-6-X--5-5-5-X-|5-X--6-6-6-X-6-X-|6-6----3-3--3-3---|
G|-7-X-7-X--6-6-6-X-|6-X--7-7-7-X-7-X-|7-7----3-3--3-3---|
D|-7-X-7-X--5-5-5-X-|5-X--7-7-7-X-7-X-|7-7-5--5-5--5-5---|
A|-5---5----7-7-7---|7----5-5-5---5---|5-5-5-------------|
E|----------5-5-5---|5----------------|----3-------------|

   Dm       A6                         Dm
       He  cometido  un abuso demensial
E|-5-X-5-X--------X-|--X--------------|------------------|
B|-6-X-6-X--5-5-5-X-|5-X--5-5-5-------|-5-6--5~----------|
G|-7-X-7-X--6-6-6-X-|6-X--6-6-6-------|-7----------------|
D|-7-X-7-X--5-5-5-X-|5-X--5-5-5-------|------------------|
A|-5---5----7-7-7---|7----7-7-7-------|------------------|
E|----------5-5-5---|5----5-5-5-------|------------------|

   Dm       A6                         Dm
       El de luchar  y rescatar mi libertad
E|-5-X-5-X--------X-|--X--------------|------------------|
B|-6-X-6-X--5-5-5-X-|5-X--5-5-5-------|-5-6--5~----------|
G|-7-X-7-X--6-6-6-X-|6-X--6-6-6-------|-7----------------|
D|-7-X-7-X--5-5-5-X-|5-X--5-5-5-------|------------------|
A|-5---5----7-7-7---|7----7-7-7-------|------------------|
E|----------5-5-5---|5----5-5-5-------|------------------|

             C         B
       Sobreviviendo ante esta demencia social
E|-------------|-------------------|
B|-10----10----|-------------------|
G|-----7-------|-12--------10------|
D|----------10-|-----10-10-----10--|
A|-------------|-------------------|
E|-------------|-------------------|

E|------------------------|----------------|
B|-10h12p10-9h10p9-9h10p9-|10/12b(13)------|
G|------------------------|----------------|
D|------------------------|----------------|
A|------------------------|----------------|
E|------------------------|----------------|

            C              B
     La resicnacion esta prohibida en este templo
E|-------------|-------------------|
B|-10----10----|-------------------|
G|-----7-------|-12--------10------|
D|----------10-|-----10-10-----10--|
A|-------------|-------------------|
E|-------------|-------------------|

E|------------------------|----------------|
B|-10h12p10-9h10p9-9h10p9-|10/12b(13)------|
G|------------------------|----------------|
D|------------------------|----------------|
A|------------------------|----------------|
E|------------------------|----------------|

   C#m                  E               C#m
     Y es que estamos delu-    to
E|--------------------|---------------------|
B|--------------------|-9/129--------------|
G|-6---------6---6----|---------9---9-----6-|
D|-6---------6---6----|---------9---9-----6-|
A|-4-4-4-4-4-4-4-4----|---------7---7-74-4-|
E|--------------------|---------------------|

                       E
  Crees que el tiempo afecta   la razon
E|--------------------|---------------------|
B|--------------------|-9/129--------------|
G|----------6---6-----|---------------------|
D|----------6---6-----|---------9-9-9--9--9-|
A|----------4-4-4-----|---------7-7-7--7--7-|
E|--------------------|---------------------|

       C#m             E
 Viejo el  mun  do  el es sabio
E|--------------------|----------------------|
B|--------------------|-9/129---------------|
G|------6----6---6----|----------------------|
D|------6----6---6----|----------9-9-9--9--9-|
A|------4----4-4-4----|----------7-7-7--7--7-|
E|--------------------|----------------------|

        C#m           E
    Vieja el al ma eso es sagrado
E|--------------------|----------------------|
B|--------------------|-9/129---------------|
G|------6----6---6----|----------------------|
D|------6----6---6----|----------9-9-9--9--9-|
A|------4----4-4-4----|----------7-7-7--7--7-|
E|--------------------|----------------------|

       C#m             E
 Viejo el  mun  do  el es sabio
E|--------------------|----------------------|
B|--------------------|-9/129---------------|
G|------6----6---6----|----------------------|
D|------6----6---6----|----------9-9-9--9--9-|
A|------4----4-4-4----|----------7-7-7--7--7-|
E|--------------------|----------------------|

        C#m           E
    Vieja el al ma eso es sagrado
E|--------------------|----------------------|
B|--------------------|-9/129---------------|
G|------6----6---6----|----------------------|
D|------6----6---6----|----------9-9-9--9--9-|
A|------4----4-4-4----|----------7-7-7--7--7-|
E|--------------------|----------------------|

    Gm       F/A6     E7
E|------------------|-----------------|
B|------3--------2--|-----3-----------|
G|-o----3--------0--|-----1-----------|
D|-o----5--------2--|-----2-----------|
A|------------------|-----------------|
E|--3--------1------|-0---------------|

  Gm          F/A6       E7
E|-------------------|---------------------------|
B|-------3--------2--|------3--------------------|
G|-------3--------0--|------1--------------------|
D|----5--5--------2--|------2--------------------|
A|----5--------------|----------0--1--0----------|
E|-3---------0-1-----|-0-1--------------3--1--0--|

  Gm        F/A6     E7
   He co meti do un pecado universal
E|-----------------|------------------|
B|-----3--------2--|------3-----------|
G|-----3--------0--|------1-----------|
D|-----5--------2--|------2-----------|
A|-----------------|------------------|
E|-3--------1------|-0----------------|

 Gm          F/A6       E7
    El ser yo mismo y proteger mi soledad
E|-------------------|---------------------||
B|-------3--------2--|------3--------------||
G|-------3--------0--|------1------------o-||
D|----5--5--------2--|------2------------o-||
A|----5--------------|------------0---2----||
E|-3---------0-1-----|-0-1-----------------||


Esta es to la rola completa lo del final se repite otras 4 veces mas
Si tienen alguna duda o tengo algun error mandenme un e mail
Esto es todo saludos mi compa el Ariel y para mi chabela arriba Juarez.
Suggest correction
Give kudos to tab author, rate the tab!
1 2 3 4 5
comments
print report bad tab
guest
You may want to rate the tab now too:
select rating
Wanna post a correction for this tab? Suggest correction