Oops, an error
Loading. Please wait.

Viento Tab

99 views 1 this week
no commentswrite comment
1 2 3 4 5
3 more votes to show rating
add to favorites
launch autoscroll
font size
0
reset
how to read this tab
guitar tuner
×
Best way to learn
"Viento"
Autoscroll
slow
fast
+/-
esc
set tempo
stop
Raul_retro80@
en si la cancion esta sencilla solo hay que escucharla para tomarle
rito.... ya veran..... solo modifique el intro..es la primera
vez que lo hago
INTRO:
 (*) se repite
            2 veces                2 veces
e|*----------------------------*/*-----------*
B|*----------------------------*/*-----------*
G|*----------------------------*/*-----------*
D|*----------------------------*/*-----------*
A|*--------9-9----------9-9----*/*------9-9--*
E|*--10-10-----10-12-12-----12-*/*--7-7-----7*

                          C                    Am
                          Prestame tu peine   y peiname el alma
e|------------------------------------------------|
B|------------------------------------------------|
G|------------------------------------------------|
D|------------------------------------------------|
A|-----5-5-------7-7------------------------------|
E|-3-3-----3/5-5-----7/10--se repite hasta ``que quiero brincar´´
   C                         Am            F
   desenrredame              fuera de este mundo
   C                          Am
   dime que no estoy          soñandote
   C                        Am            F
   enseñame                 de que estamos hechos

   Em                          F
   Que quiero brincar planetas hasta ver una vacio
e|-------0-----------0------------1------------1-----|
B|-----0---0-------0---0--------1---1--------1---1---|
G|-----------0-----------0------------2----2------2--|
D|---------------------------------------------------|
A|---------------------------------------------------|
E|--0-----------0-------------1----------1-----------|

   Em                        F            G
   que quiero hirme a vivir  pero que sea contigo
e|-------0-----------0------------1-------------3-----|
B|-----0---0-------0---0--------1---1---------0---0---|
G|-----------0-----------0------------2-----0------0--|
D|----------------------------------------------------|
A|----------------------------------------------------|
E|--0-----------0-------------1-----------3-----------|


    C                         Am
    Viento                    amarranos
e|-------0------------0------------0--------------0------|
B|-----1---1--------1---1--------1---1----------1---1----|
G|-----------0------------0------------0------0-------0--|
D|-------------------------------------------------------|
A|--3------------3------------0------------0-------------|
E|-------------------------------------------------------|
    C                         Am            F
    tiempo                    detente muchos años
e|-------0------------0------------0--------1-------------|
B|-----1---1--------1---1--------1---1------1-------------|
G|-----------0------------0------------0----2-------------|
D|------------------------------------------3-------------|
A|--3------------3------------0-------------3-------------|
E|------------------------------------------1-------------|

Apartir de aqui se empieza el razgeo, si gustan pueden seguir
haciendole los punteos

C  Am  C  Am

   C                 Am
Prestame tu peine y peiname el alma
   C       Am         F
pufiricame no me avandones
   C                   Am
prestame tus sueño y duermeme
   C         Am        F
embrujame volvamonos eternos

  Em                         F
Que quiero brincar planetas hasta ver una vacio
  Em                       F             G
que quiero hirme a vivir pero que sea contigo


CORO

  C     Am       F G
Viento amarranos
  C      Am            F   G
tiempo detente muchos años

  C     Am       F G
Viento amarranos
  C      Am            F
tiempo detente muchos años

Esta es una buena rola espero que les guste laverdad esta
facil y se oye chido a dos guitarras, eso es todo y arriba jaguares
Suggest correction
Give kudos to tab author, rate the tab!
1 2 3 4 5
comments
print report bad tab
guest
You may want to rate the tab now too:
select rating
Wanna post a correction for this tab? Suggest correction