Oops, an error
Loading. Please wait.

No Vaya A Ser Tab

14 views 1 this week
no commentswrite comment
1 2 3 4 5
3 more votes to show rating
add to favorites
launch autoscroll
font size
0
reset
how to read this tab
guitar tuner
×
Best way to learn
"No Vaya A Ser"
Autoscroll
slow
fast
+/-
esc
set tempo
stop
Aqui de nuevo ahora con una rola de Jaime Ades.....bueno se la dedico
a mis valedores del Rosario....y bno espero les guste esta rola
ya q supongo q alguna vez hemos soñado algo parecido a esto...

Dedicada para la niña d mis sueños ojala nunk me despierte... En fin
Suerte y vivan los trovers...


  Intro:
    A            A
E--5-----------5-------------|
A----------------------------|
D-----7-----7-----7-----7----|
G--6-----------6-------------|
B----------------------------|
e--------5-----------5-------|

    A            A                A           A
E--5-----------5-------------|--5-----------5-------------|
A----------------------------|----------------------------|
D-----7-----7-----7-----7----|-----7-----7-----7-----7----|
G--6-----------6-------------|--6-----------6-------------|
B----------------------------|----------------------------|
e--------5-----------5-------|--------5-----------5-------|
     Soñaba  q  dormía           y en mi sueño yo soñaba

     G           G               G           G     G  G#
E--3-----------3-------------|--3-----------3------3--4---|
A----------------------------|----------------------------|
D-----5-----5-----5-----5----|-----5-----5-----5---5--6---|
G--4-----------4-------------|--4-----------4------4--5---|
B----------------------------|---------------------3--4---|
e--------3-----------3-------|--------3-------------------|
    que cantaba esta canción

    A            A                A           A
E--5-----------5-------------|--5-----------5-------------|
A----------------------------|----------------------------|
D-----7-----7-----7-----7----|-----7-----7-----7-----7----|
G--6-----------6-------------|--6-----------6-------------|
B----------------------------|----------------------------|
e--------5-----------5-------|--------5-----------5-------|
  Las horas se alargaban, las paredes se encogían

     G           G               G           G
E--3-----------3-------------|--3-----------3-------------|
A----------------------------|----------------------------|
D-----5-----5-----5-----5----|-----5-----5-----5----5-----|
G--4-----------4-------------|--4-----------4-------------|
B----------------------------|----------------------------|
e--------3-----------3-------|--------3-----------3-------|
   todo embonó mucho mejor.

     Bm            Bm7           A                A*
E----------------------------|-----5----------------------|
A----2-----------------------|----------------------------|
D----------------------------|----------------------------|
g-------4-----------4--------|--------6-----------6-------|
b----4-----4-----2-----2-----|-----5-----5-----8-----8----|
e-------------2--------------|--------------5-------------|
    Pero no se lo digas a nadie,       a nadie
   A                A*              G             G*
E-----5----------------------|--3-3-3-3-3-3--3-3-3-3-3-3--|
A----------------------------|--5-5-5-5-5-5--5-5-5-5-5-5--|
D----------------------------|--5-5-5-5-5-5--3-3-3-3-3-3--|
g--------6-----------6-------|--4-4-4-4-4-4--4-4-4-4-4-4--|
b-----5-----5-----7-----7----|--3-3-3-3-3-3--6-6-6-6-6-6--|
e--------------5-------------|--3-3-3-3-3-3--3-3-3-3-3-3--|
  por favor.
(Ojo esta parte ya es rasgueada)

   A*
Frases enroscadas q se enredan en la luna
        G*             G*-G#*
a la una menos dos.

  A*
Cuerpos de lagarto, q se abrazan con la cola,
        G*
hacen fila sin razón.

      Bm7
Y yo aún no te conozco
    A*                              G*           G*-G#*
y ya sé lo que se sabe, cuando encuentras un amor.

     Am                Am/G                Am/F#
El cielo está más alto ya y la marea ha conseguido
           Emsus         Am       Am/G      Am/F#     Em
mis rodillas alcanzar.      Uuhhh uuhhhhhuuuuu...

     Am                Am/G               Am/F#
Buscándote, yo resbalé y hasta el cielo fui cayendo
         Emsus           Am      Am/G      Am/F#      Em
sin poder parar jamás.      Uuhhh uuhhhhhuuuuu...

         G*             Bm7
Y ahora sé q en la espalda de saturno
         A*               G*               G*-G#*
hay un viejo testarudo q esconde la verdad.

  A*
Sí, lámparas de halógeno se encienden en mi cuerpo
        G*
e ilumino el corredor.

  A*
Las llamas de tu pelo han llegado hasta el techo
               G*
y eso nubla mi visión.

     G*            Bm7                 A*
Y esconderme en las faldas de mi madre ya no es la solución?
           G*
Más puede considerarse.

     Am             Am/G               Am/F#
Un huracán me mece ya, y mil gladiolas me acompañan
              Emsus          Am      Am/G    D/F#*   Em
a encontrar un gran final.      Uuhhh uuhhhhhuuuuu...

     Am             Am/G               Am/F#
Al despertar me ví despertar y hoy mi miedo es ser un sueño
               Emsus     Am      Am/G     D/F#      Em
y no despetar jamás.      Uuhhh uuhhhhhuuuuu...

      G*            Bm7               A*
No vaya a ser, pero no se lo digas a nadie,
            G*      G*-G#*          A
a nadie por favor

                          ---FIN---

*En la parte rasgueada se utiliza mucho el bajo d cada nota....asi q
pegenle chido a la sexta y a la quinta....mmm

**Comentarios o dudas o mentadas d madre a mi correo...

***Tambien si alguien tiene la tablatura de mal necesario
pasenla no sean codos


   G     G*    A     A*    G#  Am/F#  G#*  Emsus  Am   Am/G   Bm7
E--3--|--3--|--5--|--5--|--4--|--2--|--x--|--0--|--x--|--3--|--2--|
A--5--|--5--|--7--|--7--|--6--|--0--|--x--|--2--|--0--|--0--|--2--|
D--5--|--3--|--7--|--5--|--6--|--2--|--0--|--2--|--2--|--2--|--4--|
g--4--|--4--|--6--|--6--|--5--|--2--|--2--|--0--|--2--|--2--|--2--|
b--3--|--6--|--5--|--8--|--4--|--1--|--3--|--3--|--1--|--1--|--3--|
e--3--|--3--|--5--|--5--|--4--|--0--|--1--|--3--|--0--|--0--|--2--|


-------------------Rebek...tQ1ch-----------------

--------------------Ivxn Trover------------------
Suggest correction
Give kudos to tab author, rate the tab!
1 2 3 4 5
comments
print report bad tab
guest
You may want to rate the tab now too:
select rating
Wanna post a correction for this tab? Suggest correction