Oops, an error
Loading. Please wait.

Dime Tab

17 views 1 this week
no commentswrite comment
1 2 3 4 5
3 more votes to show rating
add to favorites
×
Save as Personal and add changes to this tab that will be seen only by you. Learn more ›
×
You can save this tab as Personal to edit and correct it or add notes. All changes will be seen only by you. Learn more »
save as personal
new!
launch autoscroll
font size
0
reset
how to read this tab
guitar tuner
Autoscroll
slow
fast
+/-
esc
set tempo
stop
   Yo asi escucho la canción, mi guitarra esta en 
el mismo tono que la trae Sin Bandera o Nicho Hinojosa
asi que le pongo el capo en el primer traste y  me 
suena asi... 

Intro:


  D     A       G        A7
E------------------------------------
A------------------------------------
D------------------------------------
G------------------------2-----------
B--3--------2-3-3---3-2-0------------
e-2-0-2-0------0---------------------
  


**Esto va con guitarra eléctrica, pero estos 
son los tonos**

  D     A                   G              A7
E---------------------------------------------
A---------------------------------------------
D---------------------------------------------
G---------------------------------------------
B--3--------2-3-------------------------------
e-2-0-2-0------0-2-3-10-11-10---9_10---9-7-5--


  D            A          G
   Tan sediento, tan vacío,
                      Em      A7  D 
tan inmenso es este frío sin ti,
            A            G
tan desierto, tan perdido,
                       Em       A7 
tan incierto se me ha vuelto vivir

    G                        A7
   Romperé en la noche tus recuerdos,
      D           F#m         Bm   A
como lágrimas de hielo en mi sufir,
    G                         Em
y vuelve a alzar el vuelo el veneno de este anhelo,
     A7                   
por tenerte al despertar,
   D             A7
y poder una vez más amarte. 

   D                              A
   Dime que puedo hacer con esta vida,
                      G                    A7     
que solo existe la medida de tu piel y mi piel,
D A7 D                               A
solo dime cual fue mi error para perderte,
                           G                   A7 
que estoy muriendo por no verte, y no sé respirar,
               Em   A7          D
si no puedo tenerte... una vez más.

                                
**Esto va con guitarra eléctrica**

          D  
 A        G             A7
E--------------------------------------------------------
A--------------------------------------------------------
D--------------------------------------------------------
G--------------------------------------------------------
B-0-2-3---3---------2-3-3---0-2-3------------------------
e------0-2-0-2-0-------0---------0-2-3-0---0-5-7-5-0_5_4-


D     A                   G              A7
E---------------------------------------------
A---------------------------------------------
D---------------------------------------------
G---------------------------------------------
B--3--------2-3-------------------------------
e-2-0-2-0------0-2-3-10-11-10---9_10---9-7-5--


       G                        A7
   Me rompen en la noche tus recuerdos,
     D           F#m         Bm   A
como lágrimas de hielo en mi sufir,
    G                         Em
y vuelve a alzar el vuelo el veneno de este anhelo,
     A7                   
por tenerte al despertar,
   D             A7
y poder una vez más amarte. 

   D                              A
   Dime que puedo hacer con esta vida,
                      G                    A7     
que solo existe la medida de tu piel y mi piel,
D A7 D                               A
solo dime cual fue mi error para perderte,
                           G                   A7 
que estoy muriendo por no verte, y no sé respirar,
               Em   A7          D     A7 
si no puedo tenerte-e... una vez ma-a-as,
                     G                       A7
(que solo existe la medida, de tu piel y mi piel)

 
        D  A7 D            A            G 
   Huu, solo dime... solo dime... solo dime...
          A7                 D A7 D            A
(y no sé respirar)... ho-o-o-o-o dime... solo dime...
                    G                     A7     
que solo existe la medida de tu piel y mi piel,
D A7 D    A  G           A7
solo dime-e    (y no sé respirar)...
D A7 D            A            G 
solo dime... solo dime... solo dime..


   **El final es un poco enredado porque algunos cambios
entran en el coro, que es lo que está entre (), escucha
el disco para que que de mas claro.
    Esta canción va dedicada a la persona que fué mas importante
para mi: Roxana (R.G.H.C.)... aunque sigo sin saber que fué
lo que nos pasó... no sé en que me equivoqué... pero eso
ahora ya no importa... muchisima suerte... nunca te olvidaré...
   Dudas, sugerencias y comentarios... mandame un correo,
o si me equivoqué en algún tono, agradecería mucho que me 
lo hicieran saber**
Suggest correction
Give kudos to tab author, rate the tab!
1 2 3 4 5
comments
print report bad tab
guest
Wanna post a correction for this tab? Suggest correction