Oops, an error
Loading. Please wait.

Cristo Reina Bass Tab

56 views 3 this week
no commentswrite comment
1 2 3 4 5
3 more votes to show rating
add to favorites
launch autoscroll
font size
0
reset
guitar tuner
Autoscroll
slow
fast
+/-
esc
set tempo
stop
Help us to improve Ultimate-Guitar.com Take our survey!
×
Hola que tal, Dios les bendiga, ahora comparto
con ustedes esta cancion que ya es viejita
pero muy chida, no lo digo por presumir y Dios
sabe lo que digo pero yo normalmente subo
tablaturas casi 100% iguales a como se oyen
en los discos de audio, obviamente se me podran
escapar uno que otro errorcillo, pero siempre
trato de sacarlas lo mas igual posible a las
grabaciones.

NOTA IMPORTANTE:

Si la tablatura se ve desacomodada (por razones de
la pagina que me gustaría presentar una queja) o si
quieren que saque una canción en especial en bajo
o en guitarra no duden en contactarme a mi mail:

soyfangh@

o agregenme en facebook:

Josue Osorio Jimenez

y hare mi mayor esfuerzo por ayudarles con la cancion
que necesiten.

Mi recomendacion de siempre:

Escuchen muy bien la cancion mientras leen la tablatura
para que sepan muy bien en donde va cada adorno ok?

Artista: Jaime Murrell
Álbum: Cristo Reina
Canción: Cristo Reina
Instrumento: Bajo Eléctrico

Afinación: G D A E B

   Intro de batería y sintetizador (0:13) Intro guitarra y bajo
G |-------------------------------|----------------------------------|
D |-------------------------------|----------------------------------|
A |-------------------------------|--------------------------3-------|
E |-------------------------------|-1--------1-----------------------|
B |-------------------------------|----------------------1-----------|

  (0:21)  Coro introductorio
G |-------------------------------------------------------------------
D |-------------------------------------------------------------------
A |-------------------------------------------------------------------
E |-1-1---1---1-1---1---1-1---1---1-1---1---1-1---1---1-1---1---1-1---
B |-------------------------------------------------------------------

G |---------------------------|
D |---------------------------|
A |----------3----------3-----|
E |1--------------------------|
B |-----1----------1----------|

  Coro 1
G |-------------------------------------------------------------------
D |--------3--3-----------3----5--0?3h4p3----------3--3----------3----
A |-------------3---------------------------------------3-----------5-
E |-1-1-1------------1-1--------------------1-1-1------------1-1------
B |-------------------------------------------------------------------

G |-------------------------------------------------------------------
D |--------------3--3-----------3----5--0-3h4p3----------3--3---------
A |5--3---------------3---------------------------------------3-----3-
E |-------1-1-1------------1-1--------------------1-1-1---------------
B |-------------------------------------------------------------------

G |-------------------------------------------------------------------
D |-------5----------------------3--3-----------3----5--0-3h4p3-------
A |--3------3-3-3-3-------------------3-------------------------------
E |-------------------5---1-1-1------------1-1--------------------1-1-
B |-------------------------------------------------------------------


G|--------------------------------------------------------------------
D|---3--3----------3------------------3--3-----------3----5?-0-3h4p3--
A|--------3-----------5-5--3---------------3--------------------------
E|1------------1-1-------------1-1-1------------1-1-------------------
B|--------------------------------------------------------------------

G|--------------------------------------|
D|--------3--3--------------------------|
A|-------------3---3-3----3-------------|
E|-1-1-1--------------------------------|
B|------------------------------1---1---|


  Verso
G |------------------------------------------------7------------------
D |------------------------------3-3--2----------------------7--------
A |--------5------0---0-1--------------------5-------5----------------
E |--------------------------1--------------------------5------5--6---
B |-3---------3-------------------------------------------------------

G |--------------------------|
D |--------------------------|
A |---3---3--3--3---3--------|
E |-6-------------3---3------|
B |---------------------1-1--|


Coro 2
G |-------------------------------------------------------------------
D |--------3--3-----------3----5--0?3h4p3----------3--3----------3----
A |-------------3---------------------------------------3-----------5-
E |-1-1-1------------1-1--------------------1-1-1------------1-1------
B |-------------------------------------------------------------------

G |-------------------------------------------------------------------
D |--------------3--3-----------3----5--0-3h4p3----------3--3---------
A |5--3---------------3---------------------------------------3-----3-
E |-------1-1-1------------1-1--------------------1-1-1---------------
B |-------------------------------------------------------------------

G |-------------------------------------------------------------------
D |----------/\---------------3--3-----------3----5--0-3h4p3----------
A |--3----------------------------3-----------------------------------
E |------------------1-1-1------------1-1----------------------1-1-1--
B |------1------------------------------------------------------------

G|--------------------------------------------------------------------
D|--3--3-------------3------------------3--3-----------3----5?-0-3h4p3
A|-------3--------------5-5--3---------------3------------------------
E|-----------1-1-1---------------1-1-1------------1-1-----------------
B|--------------------------------------------------------------------


G|---------------------------------------------|
D|---------3--3--------------------------------|
A|--------------3----3-------------3--3--------|
E|-1-1-1-------------------------3-------3-----|
B|------------------------1-----------------1--|


  (1:50) Verso 2
G |------------------------------------------------------------------
D |-------------------------------3-3---2--------------7-------------
A |--------5------0---0-1--------------------5-----------------------
E |---------------------------1-------0----------3-5-----5---6--6--6-
B |-3---------3------------------------------------------------------

G |-----------------------|
D |-----------------------|
A |----3--3--3--3---5-----|
E |-6---------------------|
B |--------------------3--|


  (2:11)
G |------------------------------------------------------|
D |------------------------------------------------------|
A |--5?2----------------------------5s7-5----?5----------|
E |------5-3--------------3----------------7------/\-----|
B |---------------------3--------------------------------|


  (2:20) Coro (Aumenta 1 tono completo)
G |-------------------------------------------------------------------
D |--------5--5-----------5----7---?5h6p5----------5--5----------5----
A |-------------5-----------------7---------------------5-----------7-
E |-3-3-3------------3-3--------------------3-3-3------------3-3------
B |-------------------------------------------------------------------

G |-------------------------------------------------------------------
D |--------------5--5-----------5----7----5h6p5----------5--5---------
A |7--5---------------5-----------------7---------------------5---5s7-
E |-------3-3-3------------3-3--------------------3-3-3---------------
B |-------------------------------------------------------------------

G |-------------------------------------------------------------------
D |-----------------------5--5-----------5----7----5h6p5----------5--5
A |5----5--5-------------------5-----------------7--------------------
E |---7-------------3--3------------3-3--------------------3-3-3------
B |----------3-3--/\--------------------------------------------------

G |-------------------------------------------------------------------
D |-------------5--------------------5--5-----------5----7---9---5\---
A |-5----------------7-7--5---------------5-----------5---------------
E |------3-3-3----------------3-3-3------------3-3--------------------
B |-------------------------------------------------------------------


G |-----------------------------------------------|
D |-------5--5------------------------------------|
A |------------5---5s7-5----5---5--5-5-5-------5--|
E |3-3-3------------------7-----------------------|
B |----------------------------------------3------|

  (2:50) Final
G |---------------------------------------------------|
D |----------------3-----------2----------------------|
A |---------------------------------------------------|
E |--3-3-----1-------1---0-------0----------1---3-----|
B |-------------------------------------4-------------|
Suggest correction
Give kudos to tab author, rate the tab!
1 2 3 4 5
comments
print report bad tab
guest
You may want to rate the tab now too:
select rating
Wanna post a correction for this tab? Suggest correction