Oops, an error
Loading. Please wait.

Come Bass Tab

by Jain
34 views 34 this week
no commentswrite comment
1 2 3 4 5
3 more votes to show rating
add to favorites
launch autoscroll
font size
0
reset
guitar tuner
Autoscroll
slow
fast
+/-
esc
set tempo
stop
Help us to improve Ultimate-Guitar.com Take our survey!
×
Author
Difficulty
intermediate
About this tab version
There is two slides down in the beginning of the song. Was this info helpful? Yes No
-------------------------------------------------------------------------------
                            Jaine - Come
-------------------------------------------------------------------------------

Tuning: standard 4 strings Bass Guitar

Tabbed By : drone89 

-------------------------------------------------------------------------------

[Intro]
[00:00]
No Bass

[Verse]
[00:09]
No Bass

[Chorus]
[00:28]

G|-6-6---------------------------------------------6-6-----------------------------------------------|
D|-----6-6-----------------4--------6--------6---------6-6-----------------4-------6-----------6-----|
A|---------7-7-4-4------4--------6-----6--------6----------7-7-4-4------4-------6-----6-----6-----6--|
E|------------------x2--------4-----------4-------------------------x2-------4-----------4-----------|

G|-6-6------------------------------------------------6-6-----------------------------------------------|
D|-----6-6-----------------4--------6-----------6---------6-6-----------------4-------6-----------6-----|
A|---------7-7-4-4------4--------6-----6-----6-----6----------7-7-4-4------4-------6-----6-----6-----6--|
E|------------------x2--------4-----------4----------------------------x2-------4-----------4-----------|


[Verse]
[00:57]

G|---------------------------|
D|---------------------------|
A|-4~~-----------4~~---------|
E|-----2~~\4~~-------2~~\4~~-|

[Chorus]
[01:06]

G|-6-6------------------------------------------------6-6----------------------------------------------|
D|-----6-6------------------4-------6--------6------------6-6------------------4-------6---------6-----|
A|---------7-7-4-4-------4-------6-----6--------6-------------7-7-4-4-------4-------6-----6---------6--|
E|-------------------x2-------4-----------4-----------------------------x2-------4------------4--------|

G|-6-6------------------------------------------------6-6------------------------------------------------|
D|-----6-6------------------4-------6-----------6---------6-6------------------4-------6-----------6-----|
A|---------7-7-4-4-------4-------6-----6-----6-----6----------7-7-4-4-------4-------6-----6-----6-----6--|
E|-------------------x2-------4-----------4-----------------------------x2-------4-----------4-----------|

[Bridge]
[01:26]
No Bass

[Chorus]
[01:45]

G|----------------------|
D|-------6--------6-----|
A|----6-----6--------6--|
E|-4-----------4-------4|

G|-6-6------------------------------------------------6-6--------------------------------------8-----------|
D|-----6-6------------------4--------6-----------6--------6-6------------------4-------6--6\9-----9--11--9-|
A|---------7-7-4-4-------4--------6-----6-----6-----6---------7-7-4-4-------4-------6----------------------|
E|-------------------x2-------4------------4----------------------------x2-------4-------------------------|

[Verse]
[1:57]

G|-6-6-----------------------------------------------6-6------------------------------------------------|
D|-----6-6------------------4-------6-----------6--------6-6------------------4-------6--------6--------|
A|---------7-7-4-4-------4-------6-----6-----6-----6---------7-7-4-4-------4-------6-----6--------6-----|
E|-------------------x2-------4-----------4----------------------------x2-------4-----------4--------4--|

G|-6-6-----------------------------------------------6-6--------------------------------------8-----------|
D|-----6-6------------------4-------6-----------6--------6-6------------------4-------6--6\9-----9--11--9-|
A|---------7-7-4-4-------4-------6-----6-----6-----6---------7-7-4-4-------4-------6----------------------|
E|-------------------x2-------4-----------4----------------------------x2-------4-------------------------|

[Chorus]
[02:16]

G|-6-6-----------------------------------------------6-6------------------------------------------------|
D|-----6-6------------------4-------6--------6-----------6-6------------------4-------6-----------6-----|
A|---------7-7-4-4-------4-------6-----6--------6------------7-7-4-4-------4-------6-----6-----6-----6--|
E|-------------------x2-------4-----------4--------4-------------------x2-------4-----------4-----------|

G|-6-6------------------------------------------------6-6-------------------------------------------------|
D|-----6-6-------------------4-------6----------6---------6-6-----------------4-------6-----------6-------|
A|---------7-7--4-4-------4-------6-----6----6-----6----------7-7-4-4------4-------6-----6-----6-----6----|
E|--------------------x2-------4----------4----------------------------x2-------4-----------4----------4--|



************************************

| x  Dead note
| ~  Vibrato
| \  Slide down

************************************
Suggest correction
Give kudos to tab author, rate the tab!
1 2 3 4 5
comments
print report bad tab
guest
You may want to rate the tab now too:
select rating
Wanna post a correction for this tab? Suggest correction