Oops, an error
Loading. Please wait.

All That tab

448 views 6 this week
no commentswrite comment
1 2 3 4 5
2 more votes to show rating
add to favorites
×
Save as Personal and add changes to this tab that will be seen only by you. Learn more ›
×
You can save this tab as Personal to edit and correct it or add notes. All changes will be seen only by you. Learn more »
launch autoscroll
font size
0
reset
how to read this tab
guitar tuner
edit
Autoscroll
slow
fast
+/-
esc
set tempo
stop
About this tab version
This tab is based off the studio version. To get the exact tuning Jake is playing in, tune your guitar down 2 half steps and then adjust listening to the song. The timing of the song is 3/4. Was this info helpful? Yes No
[Intro]
   G                        D                         Em7 
D|-------------------------|-------------------------|-------------------------|-------------|
A|-----3-----3-----3-----3-|-----3-----3-----3-----3-|-----3-----3-----3-----0-|-----1-----0-|
F|---0-----0-----0-----0---|---2-----2-----2-----2---|---0-----0-----0-----0---|---0-----2---|
C|-------------------------|-------------------------|-------------------------|-------0-----|
G|-------------------------|-------------------0-----|-------2-----------2-----|-3-----------|
D|-3-----3-----3-----3-----|-2-----2-----2-----------|-0-----------0-----------|-------------|

[Verse]
   G                        D                         C
D|-------------------------|-------------------------|---------------------------|
A|-----3-----3-----3-----3-|-----3-----3-----3-----0-|-----1-----1-----1-----1---|
F|---0-----0-----0-----0---|---2-----2-----2-----2---|---0-----0-----0-----0-----|
C|-------------------------|-------------------------|-------2-----------2-------|
G|-------2-----------2-----|-------0-----------0-----|-3-----------3-------------|
D|-3-----------3-----------|-2-----------2-----------|---------------------------|

1.    If I was a man         who lifted his head  when times of heartache
2. When I was in New York      I met a girl           Left all her friends and she's
3. When I was in LA          she drifted away         she spoke of freedom

   Am7                      G                         C
D|-------------------------|-------------------------|---------------------------|
A|-----1-----1-----1-----0-|-----3-----3-----3-----0-|-----1-----0---------------|
F|---0-----0-----0-----2---|---0-----0-----0-----0---|---0-----2-----------------|
C|-------2-----------0-----|-------------------------|-------0-------------------|
G|-0-----------0-----------|-------2-----------2-----|-3-------------------------|
D|-------------------------|-3-----------3-----------|---------------------------|

 were holding him back from  all that
  running away      from     all that             She ain't got --
  fame and    all of         all that             She ain't got --

[Chorus]
   G                        C             G                        C
D|-------------------------------------|---------------------------------------|
A|-----3-----3-----3-----0-----1-----0-|-----3-----3-----3-----0------1-----0--|
F|---0-----0-----0-----0-----0-----2---|---0-----0-----0-----0------0-----2----|
C|-------------------------------0-----|--------------------------------0------|
G|-------2-----------2-----3-----------|-------2-----------2------3------------|
D|-3-----------3-----------------------|-3-----------3-------------------------|

 --worries           she lives by the  ocean                and she's got 
   G                       C             G                       C
D|-------------------------------------|---------------------------------------|
A|-----3-----3-----3-----0-----1-----0-|-----3-----3-----3-----0-----1-----0---|
F|---0-----0-----0-----0-----0-----2---|---0-----0-----0-----0-----0-----2-----|
C|-------------------------------0-----|-------------------------------0-------|
G|-------2-----------2-----3-----------|-------2-----------2-----3-------------|
D|-3-----------3-----------------------|-3-----------3-------------------------|

   all that            the one who is   all that            yeah she's got --

[after 1st chorus]
   G                         D                        Em7 
D|-------------------------|-------------------------|-------------------------------------|
A|-----3-----3-----3-----3-|-----3-----3-----3-----3-|-----3-----3-----3-----0-----1-----0-|
F|---0-----0-----0-----0---|---2-----2-----2-----2---|---0-----0-----0-----0-----0-----2---|
C|-------------------------|-------------------------|-------------------------------0-----|
G|-------2------------2----|-------0-----------0-----|-------2-----------2-----3-----------|
D|-3-----------3-----------|-2-----------2-----------|-0-----------0-----------------------|

-- all that

[after 2nd chorus]   
   G                        C            G
D|-------------------------|-------------------3--------------------|
A|-----3-----3-----3-----0-|-----1-----0-----0----------------------|
F|---0-----0-----0-----0---|---0-----2-----0------------------------|
C|-------------------------|-------0--------------------------------|
G|-------2-----------2-----|-3--------------------------------------|
D|-3-----------3-----------|-------------3--------------------------|

-- all that             yeah she's got all that

            
            
Suggest correction
Creating personal tab
Creating personal tab
You can edit any tab online and save it as your Personal.

You can edit, replace or remove any tab part or add personal notes – all changes will be seen only by you.

Personal tabs can be accessed anytime from any device, even offline.
Learn more »
Give kudos to tab author, rate the tab!
1 2 3 4 5
comments
print report bad tab
guest
You may want to rate the tab now too:
select rating
Wanna post a correction for this tab? Suggest correction