Oops, an error
Loading. Please wait.
We have Chord Pro version of Broken.
It's the closest thing you can get to the original song and it has interactive parts. Check out the tab »
×

Broken tab

version 2
version 2

Whole song

  • Every different part of the song is fully tabbed out. Hope it helps.

Interactive

Video

105,889 views 309 this week
9 commentsread comments
1 2 3 4 5
x 84
add to favorites
×
Save as Personal and add changes to this tab that will be seen only by you. Learn more ›
×
You can save this tab as Personal to edit and correct it or add notes. All changes will be seen only by you. Learn more »
launch autoscroll
font size
0
reset
how to read this tab
guitar tuner
edit
Autoscroll
slow
fast
+/-
esc
set tempo
stop
There are a few tabs of this song on this site, however, none of them have got the 
picking pattern in the intro correct.
I have taken the chords from the other tab that's on here as I'm pretty sure 
that's correct, I've just added the correct intro.
I am 100% sure that this is correct.

Capo 1. Standard Tuning

Chords used:
G: 3-2-0-0-3-3
G/F#: 2-x-0-0-3-3
C: x-3-2-0-1-0
D: x-x-0-2-3-2
CtoD: x-5-4-0-3-0
Em: 0-2-2-0-0-0

[Intro/Verse]

e|--------------------------0|-------------------------------|
B|---------------8-----------|------------------8-----------8|
G|--------0----------0-------|--------0-------------0--------|
D|-----9-----------------9---|-----9--------------------9----|
A|10----------10-------------|-10----------10----------------|
E|---------------------------|-------------------------------|

e|--------------------------0|-------------------------------|
B|---------------8-----------|------------------8-----------8|
G|--------0----------0-------|--------0-------------0--------|
D|-----9-----------------9---|-----9--------------------0----|
A|9----------9---------------|-9----------9------------------|
E|---------------------------|-------------------------------|

e|-----------------------------0|--------------------------------0|
B|------------------8-----------|--------------------8------------|
G|----------9------------9------|----------9-------------9--------|
D|-----10------10------------10-|-----10------10------------------|
A|10----------------------------|-10-------------------------0----|
E|------------------------------|---------------------------------|

e|------------------------------|------------------------------|
B|------------------8----------8|------------------8----------8|
G|----------0------------0------|----------0------------0------|
D|-----0--------------------0---|-----0--------------------0---|
A|---------------9--------------|--------------9---------------|
E|10----------------------------|10----------------------------|


Repeat this pattern for the intro and verse.
It then goes to straight chords.

[Verse]

G
Far and away where they took you down
G/F#                     C
Let them over to your house
         D
Where I'm broken.
G
Down by the people if they let you breathe
G/F#                                   C
Don't give a damn if you still can't see
         G
Still my heart beats, for you


[Picking]

Have become all I lost
And all I hoped for.
But I must carry on
Always one never broken.


[Verse]

G
Run to the lobby where I saw you try
G/F#                                C
Don't give a damn for your reasons why
D      
Where so be it,
C                            CtoD     
down in the valley where the church bells cry
G                   C       G
I'll lead them over to your eyes.
G   Em C      G
Woah, I am one,
C     C*
I am one.


[Picking]

Break a story of
Peace and love in a future
Bright sacrifice came around
Never broken


[Verse]

G
Down by the people if they let you breathe
G/F#                                   
Don't give a damn if you still can't see
C                          
Travelling a street that I did not go,
D
used lifetime to the winter load.
C                            CtoD     
down in the valley where the church bells cry
G                   C       G
I'll lead them over to your eyes.
G   Em C       G
Woah,   I am one,
  Em C    G
Woah, I am one.

And finally the picking pattern to end:

I am one..  
Suggest correction
Creating personal tab
Creating personal tab
You can edit any tab online and save it as your Personal.

You can edit, replace or remove any tab part or add personal notes – all changes will be seen only by you.

Personal tabs can be accessed anytime from any device, even offline.
Learn more »
comments
print report bad tab
9 comments total. Showing first comments.
+2 reply
sedulousTi 80 Nov 11, 2013 08:01 AM

Very good tab, thanks! At first, I was a little confused trying it out since you missed the first strophe which goes as follows(I will write it down just in case you want to add it (: ):
"I'm waiting for you
For I'm broken down
Coming down this time
For my heart lies"

+2 reply
kr4bs 54 Nov 24, 2013 12:28 AM

nice one!

although Im quite sure that the first G chord in

G (!Em!) C G
I'll lead them over to your eyes.

should be a Em instead! Otherwise, fantastic job!

+2 reply
christinaayers 2,206 Dec 21, 2013 02:50 PM

320033 is a G chord most people just play it 320003 because they find it easier and its the most common way to play the G chord but 320033 is another way to play the G chord it is still a G chord. So you are misinformed on that one mate.

guest
You may want to rate the tab now too:
select rating
Wanna post a correction for this tab? Suggest correction