Oops, an error
Loading. Please wait.

Saffron Tab

version 1
version 1

Whole song

9,862 views 18 this week
3 commentsread comments
1 2 3 4 5
accurate
x 5
add to favorites
launch autoscroll
font size
0
reset
how to read this tab
guitar tuner
Autoscroll
slow
fast
+/-
esc
set tempo
stop
Help us to improve Ultimate-Guitar.com Take our survey!
×
Author
Capo
4th fret
From this video http://www.youtube.com/watch?v=cDINJAB0KBY

Capo on 4th fret

Picking patterns for each chord

C:  ----------------   Fmaj7: -------------   G:-------------|
    -------1-------1          ------1------     ------0------|
    ---0-------0----          --2----------     --0----------|
    -----2-------2--          ----3-------      ----0--------|
    -3-------------           -3----------      -------------|
    ---------3------          -------------     -3-----------|

Fill ---------     Am ---------------------------------------| 
     ---------        --------1------1--------1------1-------|       
     ---------        ---2-------2-------2-------2-----------| use your thumb 
     -2-0-----        -----2-------2-------2-------2---------|     for the
     -----2-0-        -0-------------------------------------|    last bass
     ---------        ----------3------2-------1-------------| <--- notes
     hold the C shape for this

E5   ---------      F ---------|
     -------0-        -------1-|
     ---0-----        ---2-----|
     -----0---        -----3---|
     -2-------        ---------|
     ---------        -1-------|


    C
 I don't mean to waste your time
    Fmaj7
 I hope you're doing fine
    G
 Oh come on, Saffron

    C
 And I hope you like this song
    Fmaj7
 What have I done wrong
    G
 Oh, I'm gone, Saffron

    C,  Fill

    Am
 Something different about that girl
    Am
 So im reeling out of this world
    Am
 I want her to be mine
    Am                       C
 And I hope your doing fine,Saffron
    C
 Saffron


    C
 Her beauty is beyond belief
    Fmaj7
 And I know I'm beneath
    G            C
 Your league, Saffron

     C,  Fill

     Am
 Something different about that girl
     Am
 So im reeling  out of this world
     Am
 I want her to be mine
     Am                        C
 And I hope your doing fine, Saffron,
     C
 Saffron

    C,E5,F,C,E5,F,G

     C
 I don't mean to waste your time
     C              Fmaj7
 I hope your doing fine
     G           C
 Now I'm gone, Saffron
Suggest correction
What's this?
You can suggest a correction to this tab. Community and Mods will review your correction and vote to approve or reject it.
comments
print report bad tab
3 comments total.
0 reply
annabanana27 51 wrote on May 26 2013, 08:18 am

I'm having trouble with the Am part.

---------------------------------------|
--------1------1--------1------1-------|
---3-------3-------3-------3-----------| use your thumb
-----3-------3-------3-------3---------| for the
-0-------------------------------------| last bas
----------3------2-------1-------------| <--- notes

Am is 002210, but this shows you have to do 003310, is this a mistake, or how he plays it? I'm a beginner....
Otherwise, I'm enjoying the tab. Cheers!

0 reply
kateedge100 100 wrote on May 31 2013, 10:29 am

sorry my mistake it is 002210 :)
i'll change it now :D

0 reply
annabanana27 51 wrote on June 1 2013, 01:59 pm

oh good, thought I was going a little mad :) Thankyou!

guest
You may want to rate the tab now too:
select rating
Please do not post tabs as comments. Select "correction" instead!