Oops, an error
Loading. Please wait.

Seen It All Bass Tab

version 2
version 2

Whole song

1,215 views 1 this week
no commentswrite comment
1 2 3 4 5
please rate
add to favorites
launch autoscroll
font size
0
reset
guitar tuner
Autoscroll
slow
fast
+/-
esc
set tempo
stop
Help us to improve Ultimate-Guitar.com Take our survey!
×
Difficulty
intermediate
Seen It All:

Update 1: Corrected the bass solo. 

Update 2: Corrected the verse.

Verse 1 - (0:18-1:10)
g|------------------------------------------------------------------|
d|------12--12--------------------------12--12----------------------|
a|-9-9----12--12-12--12---11--11---9-9----12--12-12--12---11--11----|
E|--9-9------------12--12---12--12--9-9------------12--12---12--14\-|

g|------------------------------------------------------------------|
d|------12--12--------------------------12--12----------------------|
a|-9-9----12--12-12--12---11--11---9-9----12--12-12--12---11--11----|
E|--9-9------------12--12---12--12--9-9------------12--12---12--12--|

g|----------------------------|
d|--------------------7----6--|
a|-9-7-9/12----------7-7--7-7-|
E|--9------10-9-10-5----4-----|

g|------------------------------------------------------------------|
d|------12--12--------------------------12--12----------------------|
a|-9-9----12--12-12--12---11--11---9-9----12--12-12--12---11--11----|
E|--9-9------------12--12---12--12--9-9------------12--12---12--14\-|

g|------------------------------------------------------------------|
d|------12--12--------------------------12--12----------------------|
a|-9-9----12--12-12--12---11--11---9-9----12--12-12--12---11--11----|
E|--9-9------------12--12---12--12--9-9------------12--12---12--12--|

Chorus (1:10-1:22)

g|----------------------------------------------------|
d|----------------------------------------------------|
a|------------------1212121212121212-12--12--11--11---|
E|-1010101010101010--------------------12--12--12--12-|

g|---------------------------------------------------------------------|
d|---------------------------------------------------------------------|
a|------------------1414141414141414-1212121212121212-1111111111111111-|
E|-1010101010101010----------------------------------------------------|

Verse 2 (1:22-1:51)

g|----------------------------|
d|--------------------7----6--|
a|-9-7-9/12----------7-7--7-7-|
E|--9------10-9-10-5----4-----|

g|------------------------------------------------------------------|
d|------12--12--------------------------12--12----------------------|
a|-9-9----12--12-12--12---11--11---9-9----12--12-12--12---11--11----|
E|--9-9------------12--12---12--12--9-9------------12--12---12--14\-|

g|------------------------------------------------------------------|
d|------12--12--------------------------12--12----------------------|
a|-9-9----12--12-12--12---11--11---9-9----12--12-12--12---11--11----|
E|--9-9------------12--12---12--12--9-9------------12--12---12--12--|

Chorus 2 (1:51-2:03)

g|----------------------------------------------------|
d|----------------------------------------------------|
a|------------------1212121212121212-12--12--11--11---|
E|-1010101010101010--------------------12--12--12--12-|

g|---------------------------------------------------------------------|
d|---------------------------------------------------------------------|
a|------------------1414141414141414-1212121212121212-1111111111111111-|
E|-1010101010101010----------------------------------------------------|

Bass Solo, use distortion. (2:03-2:14)

g|----9-11/13-11-9-------14------13---|
d|--11------------11---14--14--14--14-|
a|-9-----------------12------11-------|
E|------------------------------------| x2

Chorus 3, keep the distortion on. (2:14-2:32)

g|----------------------------------------------------|
d|----------------------------------------------------|
a|------------------1212121212121212-12--12--11--11---|
E|-1010101010101010--------------------12--12--12--12-|

g|----------------------------------------------------|
d|----------------------------------------------------|
a|------------------1212121212121212-12--12--11--11---|
E|-1010101010101010--------------------12--12--12--12-|

g|---------------------------------------------------------------------|
d|---------------------------------------------------------------------|
a|------------------1414141414141414-1212121212121212-1111111111111111-|
E|-1010101010101010----------------------------------------------------|

Outro, take off the distortion. (2:32-2:51)

g|-------------|
d|-------------|
a|-14~-12~-14~-|
E|-------------|

Any questions, please don't hesitate to contact me at 'willgenius@live.co.uk', cheers.
Suggest correction
Give kudos to tab author, rate the tab!
1 2 3 4 5
comments
print report bad tab
guest
You may want to rate the tab now too:
select rating
Please do not post tabs as comments. Select "correction" instead!