Oops, an error
Loading. Please wait.

Slide Away Tab

229 views 12 this week
no commentswrite comment
1 2 3 4 5
2 more votes to show rating
add to favorites
launch autoscroll
font size
0
reset
how to read this tab
guitar tuner
Autoscroll
slow
fast
+/-
esc
set tempo
stop
Help us to improve Ultimate-Guitar.com Take our survey!
×
Author
Difficulty
Tuning
Capo
intermediate
D# G# C# F# A# D#
8th fret
Slide Away (Oasis Cover)
Live at BBC Radio 1 Live Lounge:
https://www.youtube.com/watch?v=UAriFwhPdA8

Tuned half step down
Capo on 8th fret
(or, standard tuning and capo on 7th fret)


[Intro]

e-|--------------------------------|--------------------------------|
B-|----1-----1---------1-----1-----|----3-----3---------1-----1-----|
G-|----0---------------0-----------|----4---------------2-----------|
D-|------------2---------------0---|------------5---------------3---|
A-|0-------0-------0-------0-------|5-------5-------3-------3-------|
E-|--------------------------------|--------------------------------|
   ^ ' ' ' ^ ' ' ' ^ ' ' ' ^ ' ' ' |^ ' ' ' ^ ' ' ' ^ ' ' ' ^ ' ' ' |

e-|--------------------------------|--------------------------------|
B-|----1-----1---------1-----1-----|----3-----3---------1-----1-----|
G-|----0---------------0-----------|----4---------------2-----------|
D-|------------2---------------0---|------------5---------------0---|
A-|0-------0-------0-------0-------|5-------5-------3-------3-------|
E-|--------------------------------|--------------------------------|
   ^ ' ' ' ^ ' ' ' ^ ' ' ' ^ ' ' ' |^ ' ' ' ^ ' ' ' ^ ' ' ' ^ ' ' ' |


[Verse 1]

e-|--------------------------------|--------------------------------|
B-|----1-----1---------1-----1-----|----3-----3---------1-----1-----|
G-|----0---------------0-----------|----4---------------2-----------|
D-|------------2---------------0---|------------5---------------0---|
A-|0-------0-------0-------0-------|5-------5-------3-------3-------|
E-|--------------------------------|--------------------------------|
   ^ ' ' ' ^ ' ' ' ^ ' ' ' ^ ' ' ' |^ ' ' ' ^ ' ' ' ^ ' ' ' ^ ' ' ' |
   slide away                   and give it all you've got      it's

e-|--------------------------------|--------------------------------|
B-|----1-----1---------1-----1-----|----3-----3---------1-----1-----|
G-|----0---------------0-----------|----4---------------2-----------|
D-|------------2---------------0---|------------5---------------0---|
A-|0-------0-------0-------0-------|5-------5-------3-------3-------|
E-|--------------------------------|--------------------------------|
   ^ ' ' ' ^ ' ' ' ^ ' ' ' ^ ' ' ' |^ ' ' ' ^ ' ' ' ^ ' ' ' ^ ' ' ' |
   my today                         fell in from the top        I

e-|--------------------------------|--------------------------------|
B-|----1-----1---------1-----1-----|----3-----3---------1-----1-----|
G-|----0---------------0-----------|----4---------------2-----------|
D-|------------2---------------0---|------------5---------------0---|
A-|0-------0-------0-------0-------|5-------5-------3-------3-------|
E-|--------------------------------|--------------------------------|
   ^ ' ' ' ^ ' ' ' ^ ' ' ' ^ ' ' ' |^ ' ' ' ^ ' ' ' ^ ' ' ' ^ ' ' ' |
   dream   of      you     when all talk of growing old

e-|--------------------------------|--------------------------------|
B-|----1-----1---------1-----1-----|----3-----3---------1-----1-----|
G-|----0---------------0-----------|----4---------------2-----------|
D-|------------2---------------0---|------------5---------------3---|
A-|0-------0-------0-------0-------|5-------5-------3-------3-------|
E-|--------------------------------|--------------------------------|
   ^ ' ' ' ^ ' ' ' ^ ' ' ' ^ ' ' ' |^ ' ' ' ^ ' ' ' ^ ' ' ' ^ ' ' ' |
   but you said please don't


[Pre-Chorus 1]

e-|--------------------------------|--------------------------------|
B-|----3-----3---------1-----1-----|----3-----3---------1-----1-----|
G-|----4---------------2-----------|----4---------------2-----------|
D-|------------5---------------3---|------------5---------------3---|
A-|5-------5-------3-------3-------|5-------5-------3-------3-------|
E-|--------------------------------|--------------------------------|
   ^ ' ' ' ^ ' ' ' ^ ' ' ' ^ ' ' ' |^ ' ' ' ^ ' ' ' ^ ' ' ' ^ ' ' ' |
   sliding         baby           together  we'll fly

e-|--------------------------------|--------------------------------|----------1---------------------|
B-|----3-----3---------1-----1-----|----3-----3---------3-----3-----|--------------0---0-------0-----|
G-|----4---------------2-----------|----4---------------4-----------|------------0---------0-------0-|
D-|------------5---------------3---|------------5---------------5---|----0---------------0-------0---|
A-|5-------5-------3-------3-------|5-------5-------5-------5-------|--------------------------------|
E-|--------------------------------|--------------------------------|3---------------3-------3-------|
   ^ ' ' ' ^ ' ' ' ^ ' ' ' ^ ' ' ' |^ ' ' ' ^ ' ' ' ^ ' ' ' ^ ' ' ' |^ ' ' ' ^ ' ' ' ^ ' ' ' ^ ' ' ' |
   i       try     begging but i don't know what you're saying to    me              now that you're


[Chorus 1]

e-|------------------0-------------|--------------------------------|
B-|----------1---------------0-----|------------------0-------0-----|
G-|------0-------0-------0-------0-|------0-------0-------0-------0-|
D-|----2-------2-------2-------0---|----0-------0-------0-------0---|
A-|3-------3-------3-------2-------|--------0h2---------------------|
E-|--------------------------------|3---------------3-------3-------|
   ^ ' ' ' ^ ' ' ' ^ ' ' ' ^ ' ' ' |^ ' ' ' ^ ' ' ' ^ ' ' ' ^ ' ' ' |
   mine            we'll find a     way          to do what we've

e-|--------------------------0-----|----------0---------------0-----|
B-|----------1-----0h1-------------|0h1-------------1---------------|
G-|------2-------2-------2-------2-|------2-------2-------2-------0-|
D-|----2-------2-------2-------2---|----2-------2-------2-------0---|
A-|0-------0-------0-------0-------|0-------0-------0-------0-------|
E-|--------------------------------|--------------------------------|
   ^ ' ' ' ^ ' ' ' ^ ' ' ' ^ ' ' ' |^ ' ' ' ^ ' ' ' ^ ' ' ' ^ ' ' ' |
   done                                          oh let me be the

e-|--------------------------------|--------------------------3-----|
B-|----------1-------1-------1-----|------------------0-----------0-|
G-|------0-------0-------0-------0-|------0-------0-------0-----0---|
D-|----2-------2-------2-------0---|----0-------0-------0-----------|
A-|3-------3-------3-------3-------|--------0h2-------------2-------|
E-|--------------------------------|3---------------3---------------|
   ^ ' ' ' ^ ' ' ' ^ ' ' ' ^ ' ' ' |^ ' ' ' ^ ' ' ' ^ ' ' ' ^ ' ' ' |
   one             shines with      you                       in the

e-|----2-----2---------2-----2-----|----2-----2---------2-----2-----|
B-|----3---------------3-----------|----3---------------3-----------|
G-|------------2---------------2---|------------2---------------0---|
D-|0-------0-------0-------0-------|0-------0-------0-------0-------|
A-|--------------------------------|--------------------------------|
E-|--------------------------------|--------------------------------|
   ^ ' ' ' ^ ' ' ' ^ ' ' ' ^ ' ' ' |^ ' ' ' ^ ' ' ' ^ ' ' ' ^ ' ' ' |
   morning when you don't know what to do           two     of a

e-|--------------------------------|--------------------------------|
B-|----------1-------1-------1-----|------------------0-------0-----|
G-|------0-------0-------0-------0-|------0-------0-------0-------0-|
D-|----2-------2-------2-------0---|----0-------0-------0-------0---|
A-|3-------3-------3-------3-------|--------0h2-------------2-------|
E-|--------------------------------|3---------------3---------------|
   ^ ' ' ' ^ ' ' ' ^ ' ' ' ^ ' ' ' |^ ' ' ' ^ ' ' ' ^ ' ' ' ^ ' ' ' |
   kind            we'll find     a way and we can slide        away

e-|--------------------------------|----------0---------2-----2-----|
B-|----1-----1---------1-----1-----|----1---------------3-----------|
G-|----2---------------2-----------|----2-------0---------------0---|
D-|------------3---------------3---|--------3-------0---------------|
A-|3-------3-------3-------3-------|3-----------------------0-------|
E-|--------------------------------|--------------------------------|
   ^ ' ' ' ^ ' ' ' ^ ' ' ' ^ ' ' ' |^ ' ' ' ^ ' ' ' ^ ' ' ' ^ ' ' ' |
                                                    slide away

e-|--------------------------------|----------0---------2-----2-----|
B-|----1-----1---------1-----1-----|----1---------------3-----------|
G-|----2---------------2-----------|----2-------0-------------------|
D-|------------3---------------3---|--------3-------0-------0-------|
A-|3-------3-------3-------3-------|3---------------------------0---|
E-|--------------------------------|--------------------------------|
   ^ ' ' ' ^ ' ' ' ^ ' ' ' ^ ' ' ' |^ ' ' ' ^ ' ' ' ^ ' ' ' ^ ' ' ' |
                                                             away


[Interlude 1]

e-|--------------------------3-----|--------------------------0-----|
B-|--3-------3-------3-------------|----------0-------3-------------|
G-|------0-------0-------0-------0-|1-----1-------1-------1-------1-|
D-|----0-------0-------0-------0---|----0-------0-------0-------0---|
A-|--------------------------------|2-------2-------2-------2-------|
E-|3-------3-------3-------3-------|--------------------------------|
   ^ ' ' ' ^ ' ' ' ^ ' ' ' ^ ' ' ' |^ ' ' ' ^ ' ' ' ^ ' ' ' ^ ' ' ' |

e-|--------------------------------|--------------------------------|------------------0-------------|
B-|--1-------1-------1-------1-----|--1-------1-------1-------1-----|--0-------3---------------0-----|
G-|------2-------2-------2-------2-|------2-------2-------2-------2-|------1-------1-------1-------0-|
D-|----2-------0-------0-------0---|----2-------0-------0-------0---|----0-------0-------0-------0---|
A-|0-------------------------------|0-------------------------------|2-------2-------2-------2-------|
E-|--------3-------2-------1-------|--------3-------2-------1-------|--------------------------------|
   ^ ' ' ' ^ ' ' ' ^ ' ' ' ^ ' ' ' |^ ' ' ' ^ ' ' ' ^ ' ' ' ^ ' ' ' |^ ' ' ' ^ ' ' ' ^ ' ' ' ^ ' ' ' |

e-|--------------------------------|----------------------------|
B-|----1-----1---------1-----1-----|----------3-----------1-----|
G-|----0---------------2-----------|----4---4-------2---2-------|
D-|------------2---------------0---|--5---5-------3---3---------|
A-|0-------0-------0-------0-------|5-----------3-----------3---|
E-|--------------------------------|----------------------------|
   ^ ' ' ' ^ ' ' ' ^ ' ' ' ^ ' ' ' |^ ' ' ^ ' ' ^ ' ' ^ ' ' ^ ' |

e-|--------------------------------|----------------------------|
B-|----1-----1---------1-----1-----|----------3-----------1-----|
G-|----0---------------2-----------|----4---4-------2---2-------|
D-|------------2---------------0---|--5---5-------3---3---------|
A-|0-------0-------0-------0-------|5-----------3-----------3---|
E-|--------------------------------|----------------------------|
   ^ ' ' ' ^ ' ' ' ^ ' ' ' ^ ' ' ' |^ ' ' ^ ' ' ^ ' ' ^ ' ' ^ ' |


[Verse 2]

e-|--------------------------------|--------------------------------|
B-|----1-----1---------1-----1-----|----3-----3---------1-----1-----|
G-|----0---------------0-----------|----4---------------2-----------|
D-|------------2---------------0---|------------5---------------0---|
A-|0-------0-------0-------0-------|5-------5-------3-------3-------|
E-|--------------------------------|--------------------------------|
   ^ ' ' ' ^ ' ' ' ^ ' ' ' ^ ' ' ' |^ ' ' ' ^ ' ' ' ^ ' ' ' ^ ' ' ' |
   slide away                   and give it all you've got      it's

e-|--------------------------------|--------------------------------|
B-|----1-----1---------1-----1-----|----3-----3---------1-----1-----|
G-|----0---------------0-----------|----4---------------2-----------|
D-|------------2---------------0---|------------5---------------0---|
A-|0-------0-------0-------0-------|5-------5-------3-------3-------|
E-|--------------------------------|--------------------------------|
   ^ ' ' ' ^ ' ' ' ^ ' ' ' ^ ' ' ' |^ ' ' ' ^ ' ' ' ^ ' ' ' ^ ' ' ' |
   my today                         fell in from the top        I

e-|--------------------------------|--------------------------------|
B-|----1-----1---------1-----1-----|----3-----3---------1-----1-----|
G-|----0---------------0-----------|----4---------------2-----------|
D-|------------2---------------0---|------------5---------------3---|
A-|0-------0-------0-------0-------|5-------5-------3-------3-------|
E-|--------------------------------|--------------------------------|
   ^ ' ' ' ^ ' ' ' ^ ' ' ' ^ ' ' ' |^ ' ' ' ^ ' ' ' ^ ' ' ' ^ ' ' ' |
   dream   of      you     when all talk of growing old

e-|--------------------------------|--------------------------------|
B-|----1-----1---------1-----1-----|----3-----3---------1-----1-----|
G-|----0---------------0-----------|----4---------------2-----------|
D-|------------2---------------0---|------------5---------------3---|
A-|0-------0-------0-------0-------|5-------5-------3-------3-------|
E-|--------------------------------|--------------------------------|
   ^ ' ' ' ^ ' ' ' ^ ' ' ' ^ ' ' ' |^ ' ' ' ^ ' ' ' ^ ' ' ' ^ ' ' ' |
   but you said please don't


[Pre-Chorus 2]

e-|--------------------------------|--------------------------------|
B-|----3-----3---------1-----1-----|----3-----3---------1-----1-----|
G-|----4---------------2-----------|----4---------------2-----------|
D-|------------5---------------3---|------------5---------------3---|
A-|5-------5-------3-------3-------|5-------5-------3-------3-------|
E-|--------------------------------|--------------------------------|
   ^ ' ' ' ^ ' ' ' ^ ' ' ' ^ ' ' ' |^ ' ' ' ^ ' ' ' ^ ' ' ' ^ ' ' ' |
   sliding         baby           together  we'll fly

e-|--------------------------------|--------------------------------|--------------------------------|
B-|----3-----3---------1-----1-----|----3-----3---------3-----3-----|--------------0---0-------0-----|
G-|----4---------------2-----------|----4---------------4-----------|----------0-----------0-------0-|
D-|------------5---------------3---|------------5---------------0---|----0---0---0-------0-------0---|
A-|5-------5-------3-------3-------|5-------5-------5-------5-------|------------------------0-------|
E-|--------------------------------|--------------------------------|3---------------3---------------|
   ^ ' ' ' ^ ' ' ' ^ ' ' ' ^ ' ' ' |^ ' ' ' ^ ' ' ' ^ ' ' ' ^ ' ' ' |^ ' ' ' ^ ' ' ' ^ ' ' ' ^ ' ' ' |
   i       try     praying but i don't know what you're saying to    me              now that you're


[Chorus 2]

e-|------------------0-------------|--------------------------------|
B-|--1-------1---------------0-----|------------------0-------0-----|
G-|------0-------0-------0-------0-|------0-------0-------0-------0-|
D-|----2-------2-------2-------0---|----0-------0-------0-------0---|
A-|3-------3-------3-------2-------|--------0h2---------------------|
E-|--------------------------------|3---------------3-------3-------|
   ^ ' ' ' ^ ' ' ' ^ ' ' ' ^ ' ' ' |^ ' ' ' ^ ' ' ' ^ ' ' ' ^ ' ' ' |
   mine            we'll find a     way          to do what we've

e-|--------------------------0-----|----------0---------------0-----|
B-|----------1-----3p1-------------|0h1-------------1---------------|
G-|------2-------2-------2-------2-|------2-------2-------2-------0-|
D-|----2-------2-------2-------2---|----2-------2-------2-------0---|
A-|0-------0-------0-------0-------|0-------0-------0-------0-------|
E-|--------------------------------|--------------------------------|
   ^ ' ' ' ^ ' ' ' ^ ' ' ' ^ ' ' ' |^ ' ' ' ^ ' ' ' ^ ' ' ' ^ ' ' ' |
   done                                          oh let me be the

e-|--------------------------------|--------------------------3-----|
B-|----------1-------1-------1-----|------------------0-----------0-|
G-|------0-------0-------0-------0-|------0-------0-------0-----0---|
D-|----2-------2-------2-------0---|----0-------0-------0-----------|
A-|3-------3-------3-------3-------|--------0h2-------------2-------|
E-|--------------------------------|3---------------3---------------|
   ^ ' ' ' ^ ' ' ' ^ ' ' ' ^ ' ' ' |^ ' ' ' ^ ' ' ' ^ ' ' ' ^ ' ' ' |
   one             shines with      you                       in the

e-|----2-----2---------2-----2-----|----2-----2---------2-----2-----|
B-|----3---------------3-----------|----3---------------3-----------|
G-|------------2---------------2---|------------2---------------0---|
D-|0-------0-------0-------0-------|0-------0-------0-------0-------|
A-|--------------------------------|--------------------------------|
E-|--------------------------------|--------------------------------|
   ^ ' ' ' ^ ' ' ' ^ ' ' ' ^ ' ' ' |^ ' ' ' ^ ' ' ' ^ ' ' ' ^ ' ' ' |
   morning when you don't know what to do           two     of a

e-|--------------------------------|--------------------------------|
B-|------------------1-------1-----|----------0---------0-----0-----|
G-|------0-------0-------0-------0-|--------------------0-----------|
D-|----2-------2-------2-------0---|----0-------0---------------0---|
A-|3-------3-------3-------2-------|--------------------------------|
E-|--------------------------------|3-------3-------3-------3-------|
   ^ ' ' ' ^ ' ' ' ^ ' ' ' ^ ' ' ' |^ ' ' ' ^ ' ' ' ^ ' ' ' ^ ' ' ' |
   kind            we'll find     a way and we can slide        away

e-|--------------------------------|----------0---------2-----2-----|
B-|----1-----1---------1-----1-----|----1---------------3-----------|
G-|----2---------------2-----------|----2-------0---------------0---|
D-|------------3---------------3---|--------3-------0---------------|
A-|3-------3-------3-------3-------|3-----------------------0-------|
E-|--------------------------------|--------------------------------|
   ^ ' ' ' ^ ' ' ' ^ ' ' ' ^ ' ' ' |^ ' ' ' ^ ' ' ' ^ ' ' ' ^ ' ' ' |
                                                    slide away

e-|--------------------------------|----------0---------2-----2-----|
B-|----1-----1---------1-----1-----|----1---------------3-----------|
G-|----2---------------2-----------|----2-------0-------------------|
D-|------------3---------------3---|--------3-------0-------0-------|
A-|3-------3-------3-------3-------|3---------------------------0---|
E-|--------------------------------|--------------------------------|
   ^ ' ' ' ^ ' ' ' ^ ' ' ' ^ ' ' ' |^ ' ' ' ^ ' ' ' ^ ' ' ' ^ ' ' ' |
                                                             away


[Interlude 2]

e-|--------------------------------|--------------------------0-----|
B-|--3-------3-------3-------3-----|--0-------0-------3-------------|
G-|------0-------0-------0-------0-|------1-------1-------1-------1-|
D-|----0-------0-------0-------0---|----0-------0-------0-------0---|
A-|--------------------------------|2-------2-------2-------2-------|
E-|3-------3-------3-------3-------|--------------------------------|
   ^ ' ' ' ^ ' ' ' ^ ' ' ' ^ ' ' ' |^ ' ' ' ^ ' ' ' ^ ' ' ' ^ ' ' ' |

e-|--------------------------------|--------------------------------|--------------------------0-----|
B-|--1-------1-------1-------1-----|--1-------1-------1-------1-----|--0-------3-------3-------------|
G-|------2-------2-------2-------2-|------2-------2-------2-------2-|------1-------1-------1-------0-|
D-|----2-------0-------0-------0---|----2-------0-------0-------0---|----0-------0-------0-------0---|
A-|0-------------------------------|0-------------------------------|2-------2-------2-------2-------|
E-|--------3-------2-------1-------|--------3-------2-------1-------|--------------------------------|
   ^ ' ' ' ^ ' ' ' ^ ' ' ' ^ ' ' ' |^ ' ' ' ^ ' ' ' ^ ' ' ' ^ ' ' ' |^ ' ' ' ^ ' ' ' ^ ' ' ' ^ ' ' ' |

e-|--------------------------------|----------------------------|
B-|----1-----1---------1-----1-----|----------3-----------1-----|
G-|----0---------------2-----------|----4---4-------2---2-------|
D-|------------2---------------0---|--5---5-------3---3---------|
A-|0-------0-------0-------0-------|5-----------3-----------3---|
E-|--------------------------------|----------------------------|
  |^ ' ' ' ^ ' ' ' ^ ' ' ' ^ ' ' ' |^ ' ' ^ ' ' ^ ' ' ^ ' ' ^ ' |

e-|--------------------------------|----------------------------|
B-|----1-----1---------1-----1-----|----------3-----------1-----|
G-|----0---------------2-----------|----4---4-------2---2-------|
D-|------------2---------------0---|--5---5-------3---3---------|
A-|0-------0-------0-------0-------|5-----------3-----------3---|
E-|--------------------------------|----------------------------|
  |^ ' ' ' ^ ' ' ' ^ ' ' ' ^ ' ' ' |^ ' ' ^ ' ' ^ ' ' ^ ' ' ^ ' |

e-|--------------------------------|----------------------------|
B-|----1-----1---------1-----1-----|----------3-----------1-----|
G-|----0---------------2-----------|----4---4-------2---2-------|
D-|------------2---------------0---|--5---5-------3---3---------|
A-|0-------0-------0-------0-------|5-----------3-----------3---|
E-|--------------------------------|----------------------------|
  |^ ' ' ' ^ ' ' ' ^ ' ' ' ^ ' ' ' |^ ' ' ^ ' ' ^ ' ' ^ ' ' ^ ' |

e-|--------------------------------|------------------------0---|
B-|----1-----1---------1-----1-----|----------3-----------1-0---|
G-|----0---------------2-----------|----4---4-------2---2---1---|
D-|------------2---------------0---|--5---5-------3---3-----0---|
A-|0-------0-------0-------0-------|5-----------3-----------2---|
E-|--------------------------------|------------------------0---|
   ^ ' ' ' ^ ' ' ' ^ ' ' ' ^ ' ' ' |^ ' ' ^ ' ' ^ ' ' ^ ' ' ^ ' |


***********************************

| h   hammer-on
| p   pull-off

***********************************
Suggest correction
Give kudos to tab author, rate the tab!
1 2 3 4 5
comments
print report bad tab
guest
You may want to rate the tab now too:
select rating
Wanna post a correction for this tab? Suggest correction