Oops, an error
Loading. Please wait.

Slumville Sunrise Tab

version 1
version 1

Whole song

Interactive

32,037 views 87 this week
2 commentsread comments
1 2 3 4 5
accurate
x 9
add to favorites
launch autoscroll
font size
0
reset
how to read this tab
guitar tuner
Tab Pro tools
  • play this tab
  • loop segment
  • change instrument
  • show fretboard
  • metronome
×
Best way to learn
"Slumville Sunrise"
Autoscroll
slow
fast
+/-
esc
set tempo
stop
Contributor
Difficulty
intermediate
Her's a stab at it.   The intro is repeated throughout the main verse altho it
does switch a little in the last section to chords.   Believew it or not, no capo. ;)

INTRO:
e|-----------------------------------------------------------------------------|
B|-----------------------------------------------------------------------------|
G|-----------------------------------------------------------------------------|
D|-----------------------------------------------------------------------------|
A|------2---0--------0-0---------------2---0-------0-0-------------------------|
E|---0-----------3---------3---0----0----------3-----------3---0---------------|

e|---------------------------------------------------------------------------|
B|---------------------------------------------------------------------------|
G|---------------------------------------------------------------------------|
D|---------------------------------------------------------------------------|
A|------2---0--------0-0---------------2--2/0-------0-0------------------- --|
E|---0-----------3---------3---0----0----------3-----------3---0-------------|

The wind is beating on my window. I haven't slept all night.
That drug just keeps on banging.
They must be buzzing in the mind like bees in the hive
Tell me when the morning arrives.

This place is just not for me I say it all the time.
My friends they just ignore me.
Tell me that I’m blind, waiting on your line for the Slumville Sunrise.

C             G         Am      Em
Slumville Sunrise.
       C               G         Am      Em
Nobody cares or looks twice.
      C            G                  Am                 Em
Shine away in the morning across this place where I was born in.
        C         G          Am              Em
Every roof, every flower illuminated by the dawning.

My face upon the concrete, the dirt is in my mouth.
I clench my fist in fear. I try to cry out loud.
Make the sound soft ‘cause they keep me down.
This place is just not for me
I see it a thousand times
My friends they just ignore me. Tell me that I’m blind.
Waiting on your line for the Slumville Sunrise.
C            G         Am     Em
Slumville Sunrise
        C             G      Am        Em
Nobody cares or looks twice.
      C             G                  Am               Em
Shine away in the morning across this place where I was born in.
       C            G           Am         Em
Every roof, every flower illuminated by the dawning.

(Guitar Solo)

This place is just not for me
I say it all the time.
My friends they just ignore me. Tell me that I’m blind.
Waiting on your line for the Slumville Sunrise.
C             G       Am    Em
Slumville Sunrise
       C              G         Am      Em
Nobody cares or looks twice.
       C            G                 Am               Em
Shine away in the morning across this place where I was born in.
        C          G            Am          Em
Every roof, every flower illuminated by the dawning.
        C          G            Am           Em
Every roof, every flower illuminated by the dawning.
comments
print report bad tab
2 comments total.
0 reply
Johnnyha wrote on June 14 2013, 02:35 pm

Did this rather quickly. The latter half of the verse I think is something like this:

e|----------------------------------------------------------------------|
B|----------------------------------------------------------------------|
G|----------------------------------------------------------------------|
D|--------------------------------------------------------------------2-|
A|------2---0--------0-0------------0-0------------0-0----------------2-|
E|---0-----------3---------3---0----------3---0----------3---0----------|

They must be buzzing in the mind like bees in the hive
Tell me when the morning arrives.

Also I think the "Slumville Sunrise, Nobody cares or looks twice" is a little different than what I have?

-1 reply
Beatlesfan14 wrote on August 8 2014, 03:54 am

It's not an Am. It's a B7.

I want to post or [tab]
guest
You may want to rate the tab now too:
select rating
Please do not post tabs as comments. Select "correction" instead!