Oops, an error
Loading. Please wait.

Slumville Sunrise chords

version 2
version 2

Whole song

  • It covers the intro and the chords and mine sounds... Show more

Interactive

793 views 12 this week
no commentswrite comment
1 2 3 4 5
2 more votes to show rating
add to favorites
×
Save as Personal and add changes to this tab that will be seen only by you. Learn more ›
×
You can save this tab as Personal to edit and correct it or add notes. All changes will be seen only by you. Learn more »
launch autoscroll
font size
0
reset
transpose
0
reset
simplify chords
display chords
guitar tuner
edit
Autoscroll
slow
fast
+/-
esc
set tempo
stop
Author
Difficulty
About this tab version
It covers the intro and the chords and mine sounds more accurate the chorus should start with an E7. Was this info helpful? Yes No
Strumming
There is no strumming pattern for this song yet. and get +5 IQ
INTRO:
e|-------------------------------------------------------------------------------------|
B|-------------------------------------------------------------------------------------|
G|-------------------------------------------------------------------------------------|
D|-------------------------------------------------------------------------------------|
A|------2---0--------0-0---------------2---0-------0-0-----------0-0---0-0-0-----------|
E|---0-----------3---------3---0----0----------3-----------3---0-----3-------h3-3------|


E7         A
The wind is beating on my window
E7         A
I haven't slept all night
E7         A
That drum just keeps on banging
E7         A                      
They must be buzzing in the mind, 
A                 A
bees in the hive, tell me when the morning arrives

E7             A               
This place is just not for me
E7        A
I say it all the time.
E7        A
My friends they just ignore me.
A                  A                    E7
Tell me nevermind, waiting on your line for the Slumville Sunrise.

E7        C      G     B7
Slumville Sunrise.
Em        C      G     B7
Nobody cares or looks twice
C                 G                   B                 Em
Shout away in the morning across this place where I was born in
C                 G           B             Em
Every bruise, every flower illuminated by the dawning
e|-------------------------------------------------------------------------------------|
B|-------------------------------------------------------------------------------------|
G|-------------------------------------------------------------------------------------|
D|-------------------------------------------------------------------------------------|
A|------2---0--------0-0---------------2---0-------0-0-----------0-0---0-0-0-----------|
E|---0-----------3---------3---0----0----------3-----------3---0-----3-------h3-3------|


E7     A  E7     A               
My face upon the concrete, the dirt is in my mouth
E7   A  E7     A
I clench my fist and feet. I try to cry out loud
A          A    E7
Make a sound, somethin is keepin me down

E7             A
This place is just not for me
E7             A
I'll say it a thousand times
E7             A
My friends they just ignore me
A                  A                    E7
Tell me nevermind, waiting on your line for the Slumville Sunrise
E7        C      G     B7
Slumville Sunrise.
Em        C      G     B7
Nobody cares or looks twice
C                 G                   B                 Em
Shout away in the morning across this place where I was born in
C                 G           B             Em
Every bruise, every flower illuminated by the dawning
e|-------------------------------------------------------------------------------------|
B|-------------------------------------------------------------------------------------|
G|-------------------------------------------------------------------------------------|
D|-------------------------------------------------------------------------------------|
A|------2---0--------0-0---------------2---0-------0-0-----------0-0---0-0-0-----------|
E|---0-----------3---------3---0----0----------3-----------3---0-----3-------h3-3------|

E7             A               
This place is just not for me
E7        A
I say it all the time.
E7        A
My friends they just ignore me.
A                  A
Tell me nevermind, waiting on your line for the Slumville Sunrise.

E7        C      G    B7
Slumville Sunrise.
Em        C      G      B7
Nobody cares or looks twice
C                 G                   B                 Em
Shout away in the morning across this place where I was born in
C                 G           B             Em
Every roof, every flower illuminated by the morning
C                 G           B             Em
Every roof, every flower illuminated by the morning

            
            
Suggest correction
Creating personal tab
Creating personal tab
You can edit any tab online and save it as your Personal.

You can edit, replace or remove any tab part or add personal notes – all changes will be seen only by you.

Personal tabs can be accessed anytime from any device, even offline.
Learn more »
Give kudos to tab author, rate the tab!
1 2 3 4 5
comments
print report bad tab
guest
You may want to rate the tab now too:
select rating
Wanna post a correction for this tab? Suggest correction