Oops, an error
Loading. Please wait.

Someone Told Me Tab

version 1
version 1

Whole song

96,455 views 378 this week
5 commentsread comments
1 2 3 4 5
excellent!
x 58
add to favorites
launch autoscroll
font size
0
reset
how to read this tab
guitar tuner
Tab Pro tools
  • play this tab
  • loop segment
  • change instrument
  • show fretboard
  • metronome
Autoscroll
slow
fast
+/-
esc
set tempo
stop
Contributor
----------------------------------------------------------------------------
                Someone Told Me - Jake Bugg
----------------------------------------------------------------------------
Tabbed by: windjunky
E-mail: paulneale@me.com

Tuning: Standard (capo on 3)


Intro:
   Am              F              C             G
e|---------------|--------------|-------------|-------------|
B|-0h1-------1---|-1--------1---|-1-------1---|-0-------0---|
G|-------2-------|------2-------|-----0-------|-----0-------| X2
D|-----2-------2-|----3-------3-|---2-------2-|---0-------0-|
A|-0-------0-----|-3------3-----|-3-----3-----|-------------|
E|---------------|--------------|-------------|-3-----3-----|


Am   F        C    G
Am I crazy or am I blind?
Am      F       C          G     Am, F, C, G
Someone told me I’m out my mind, Ohhhhhh 
Am      F        C       G
Someone told me a girl I liked
Am      F             C        G    Am, F, C, G
Fell in love and all I did was cry, Ohhhhh 

F                                   C - G
Someone hold me, I’m done with this ga-me
F                              C - Am 
Said I’m sorry, but i'm not to bla-me
       G      Am, F, C, G
What a shame, Ohhhhhh

Tried to break from this lonely pain
Someone told me I’m just insane, Ohhhhhh
Broke my heart when I knew
That I could never be with you, Ohhhhhh

Someone love me, but not today
Will you show me, Show me a way
how to love? Ohhhhhh

Someone told me a girl I liked
Fell in love and all did was cry, ohhhhhh
comments
print report bad tab
5 comments total. Showing first comments.
0 reply
justcool7 wrote on April 1 2013, 03:25 pm

Classic thanks windjunky :-)

+3 reply
Bayx wrote on April 23 2013, 08:49 pm

Just throwin' this out there as a possible alternative intro

e|---------------|---------------|------------|-------------|
B|-0h1-------1---|-1-----1---1---|-1------1---|-0-------0---|
G|-------2-----2-|-----2-------2-|------0---0-|-----0-------| X2
D|-----2---------|---3-----------|-0h2--------|---0-------0-|
A|-0-------0-----|-3------3------|-----3-3----|-------------|
E|---------------|---------------|------------|-3-----3-----|

0 reply
windjunky wrote on April 30 2013, 03:33 pm

That's nice man

I want to post or [tab]
guest
You may want to rate the tab now too:
select rating
Please do not post tabs as comments. Select "correction" instead!