Oops, an error
Loading. Please wait.

What Doesnt Kill You Tab

version 1
version 1

Whole song

Interactive

Video

32,032 views 57 this week
no commentswrite comment
1 2 3 4 5
x 10
add to favorites
launch autoscroll
font size
0
reset
how to read this tab
guitar tuner
Autoscroll
slow
fast
+/-
esc
set tempo
stop
Help us to improve Ultimate-Guitar.com Take our survey!
×
Author
[Intro/Verse] (x4)
(repeat however many times)
    Ab  G  F
e|-----------------------|
B|-----------------------|
G|-----------------------|
D|--6--5--3--------------|
A|--6--5--3--------------|
E|--4--3--1--------------|

[Bridge]
    Bb  C
e|-----------|
B|-----------|
G|-----------|
D|--8--10----|
A|--8--10----|
E|--6--8-----|

[Verse] (x3)
(repeat however many times)
    Ab  G  F
e|-----------------------|
B|-----------------------|
G|-----------------------|
D|--6--5--3--------------|
A|--6--5--3--------------|
E|--4--3--1--------------|

[Chorus] (x2)
    C  Bb
e|-----------------------------------------|
B|-----------------------------------------|
G|------5----------------------------------|
D|--10--8-----10--9--10--9-10--9--10-9-10--|
A|--10--8------8--7--8---7--8--7--8--7--8--|(repeat x2 at the end of 2nd chorus)
E|--8---6----------------------------------|

[Verse] (x6)
(repeat however many times)
    Ab  G  F
e|-----------------------|
B|-----------------------|
G|-----------------------|
D|--6--5--3--------------|
A|--6--5--3--------------|
E|--4--3--1--------------|

[Bridge]
    Bb  C
e|-----------|
B|-----------|
G|-----------|
D|--8--10----|
A|--8--10----|
E|--6--8-----|

[Verse] (x2)
(repeat however many times)
    Ab  G  F
e|-----------------------|
B|-----------------------|
G|-----------------------|
D|--6--5--3--------------|
A|--6--5--3--------------|
E|--4--3--1--------------|

[Chorus] (x2)
    C  Bb
e|-----------------------------------------|
B|-----------------------------------------|
G|------5----------------------------------|
D|--10--8-----10--9--10--9-10--9--10-9-10--|
A|--10--8------8--7--8---7--8--7--8--7--8--|(repeat x2 at the end of 2nd chorus)
E|--8---6----------------------------------|

[Solo] (x2)
(Second Guitarist plays the chorus chords with the solo)
e|--8----8------8-------8----8----------------|
B|--11b--11br8--11b-----11b--11br8--8---------|
G|----------------------------------10bw------|
D|--------------------------------------------|
A|--------------------------------------------|
E|--------------------------------------------|

[Chorus] (x2)
    C  Bb
e|-----------------------------------------|
B|-----------------------------------------|
G|------5----------------------------------|
D|--10--8-----10--9--10--9-10--9--10-9-10--|
A|--10--8------8--7--8---7--8--7--8--7--8--|(repeat x2 at the end of 2nd chorus)
E|--8---6----------------------------------|


************************************

| b   Bend
| br  Bend release

************************************
Suggest correction
comments
print report bad tab
guest
You may want to rate the tab now too:
select rating
Wanna post a correction for this tab? Suggest correction